» » »

Hammerfall, Carved In Stone Tabs (ver.3)

Artists:  A B C D E F G H I J K L M N O P Q R S T U V W X Y Z # 

Carved In Stone Tabs (ver.3)

Hammerfall Tabs
Rating:
4/5 (1 vote)
Carved In Stone lessons Tabs too difficult? Try these video lessons and learn fast
                "(Part)
2 guitars



   Guitar 1
e|----------------------------------------------------------|
B|----------------------------------------------------------|
G|----------------------------------------------------------|
D|----------------------------------------------------------|
A|---8--10--11--8--11--10--8--10--11--8--11--10-------------|
E|----------------------------------------------------------|

     Guitar 2
e|----------------------------------------------------------|
B|----------------------------------------------------------|
G|----------------------------------------------------------|
D|---10---------10---------10---------10--------------------|
A|---8----------8----------8----------8---------------------|
E|----------------------------------------------------------|
    Guitar 1
e|----------------------------------------------------------|
B|----------------------------------------------------------|
G|----------------------------------------------------------|
D|----------------------------------------------------------|
A|-------10--11------13--11------10--11--13--11--10---------|
E|---11----------11----------11-----------------------------|
   Guitar 2
e|----------------------------------------------------------|
B|----------------------------------------------------------|
G|----------------------------------------------------------|
D|---8-----------8-----------8------------------------------|
A|---6-----------6-----------6------------------------------|
E|----------------------------------------------------------|
                                                             X2


    Guitar 1
e|----------------------------------------------------------|
B|----------------------------------------------------------|
G|----------------------------------------------------------|
D|----------------------------------------------------------|
A|------10--11-----13--11-----10--11-----13--11-------------|
E|---9----------9----------9----------9---------------------|

   Guitar 2
e|----------------------------------------------------------|
B|----------------------------------------------------------|
G|----------------------------------------------------------|
D|---6----------6----------6----------6---------------------|
A|---4----------4----------4----------4---------------------|
E|----------------------------------------------------------|

   Guitar 1
e|----------------------------------------------------------|
B|----------------------------------------------------------|
G|----------------------------------------------------------|
D|------------------------------------8--10--8--------------|
A|---8--10--11--8--11--10--8--10--11------------------------|
E|----------------------------------------------------------|

   Guitar 2
e|----------------------------------------------------------|
B|----------------------------------------------------------|
G|----------------------------------------------------------|
D|---10---------10---------10-------------------------------|
A|---8----------8----------8--------------------------------|
E|----------------------------------------------------------|

  Guitar 1
e|----------------------------------------------------------|
B|----------------------------------------------------------|
G|----------------------------------------------------------|
D|----------------------------------------------------------|
A|-------10--11------11--10------10--11--13--11--10---------|
E|---11----------11----------11-----------------------------|

  Guitar 2
e|----------------------------------------------------------|
B|----------------------------------------------------------|
G|----------------------------------------------------------|
D|---8-----------8-----------8------------------------------|
A|---6-----------6-----------6------------------------------|
E|----------------------------------------------------------|

  Guitar 1
e|----------------------------------------------------------|
B|----------------------------------------------------------|
G|----------------------------------------------------------|
D|----------------------------------------------------------|
A|------10--11-----13--11-----10--11-----13--11-------------|
E|---8----------8----------8----------8---------------------|

  Guitar 2
e|----------------------------------------------------------|
B|----------------------------------------------------------|
G|----------------------------------------------------------|
D|---5----------5----------5--------------------------------|
A|---3----------3----------3--------------------------------|
E|----------------------------------------------------------|

  Verse 1
 Both guitars
e|----------------------------------------------------------|
B|----------------------------------------------------------|
G|----------------------------------------------------------|
D|---10-------10-------10-------10--------------------------|
A|---8--8--8--8--8--8--8--8--8--8--8--8---------------------|
E|----------------------------------------------------------|

e|----------------------------------------------------------|
B|----------------------------------------------------------|
G|----------------------------------------------------------|
D|---8--------8--------8------------------------------------|
A|---6--6--6--6--6--6--6------------------------------------|
E|----------------------------------------------------------|

e|----------------------------------------------------------|
B|----------------------------------------------------------|
G|----------------------------------------------------------|
D|---10-------10-------10-------10--------------------------|
A|---8--8--8--8--8--8--8--8--8--8--8--8---------------------|
E|----------------------------------------------------------|

e|----------------------------------------------------------|
B|----------------------------------------------------------|
G|----------------------------------------------------------|
D|---8--------8--------8------------------------------------|
A|---6--6--6--6--6--6--6------------------------------------|
E|----------------------------------------------------------|

e|----------------------------------------------------------|
B|----------------------------------------------------------|
G|----------------------------------------------------------|
D|---6--------6--------6--------6---------------------------|
A|---4--4--4--4--4--4--4--4--4--4--4--4---------------------|
E|----------------------------------------------------------|

e|----------------------------------------------------------|
B|----------------------------------------------------------|
G|----------------------------------------------------------|
D|---10-------10-------10-----------------------------------|
A|---8--8--8--8--8--8--8------------------------------------|
E|----------------------------------------------------------|

e|----------------------------------------------------------|
B|----------------------------------------------------------|
G|----------------------------------------------------------|
D|---8--------8--------8------------------------------------|
A|---6--6--6--6--6--6--6------------------------------------|
E|----------------------------------------------------------|

e|----------------------------------------------------------|
B|----------------------------------------------------------|
G|----------------------------------------------------------|
D|---5--------5--------5------------------------------------|
A|---3--3--3--3--3--3--3------------------------------------|
E|----------------------------------------------------------|

    Verse 2
 Both guitars
e|----------------------------------------------------------|
B|----------------------------------------------------------|
G|----------------------------------------------------------|
D|---10-------10-------10-------10--------------------------|
A|---8--8--8--8--8--8--8--8--8--8--8--8---------------------|
E|----------------------------------------------------------|

e|----------------------------------------------------------|
B|----------------------------------------------------------|
G|----------------------------------------------------------|
D|---8--------8--------8------------------------------------|
A|---6--6--6--6--6--6--6------------------------------------|
E|----------------------------------------------------------|

e|----------------------------------------------------------|
B|----------------------------------------------------------|
G|----------------------------------------------------------|
D|---10-------10-------10-------10--------------------------|
A|---8--8--8--8--8--8--8--8--8--8--8--8---------------------|
E|----------------------------------------------------------|

e|----------------------------------------------------------|
B|----------------------------------------------------------|
G|----------------------------------------------------------|
D|---8--------8--------8------------------------------------|
A|---6--6--6--6--6--6--6------------------------------------|
E|----------------------------------------------------------|

e|----------------------------------------------------------|
B|----------------------------------------------------------|
G|----------------------------------------------------------|
D|---6--------6--------6--------6---------------------------|
A|---4--4--4--4--4--4--4--4--4--4--4--4---------------------|
E|----------------------------------------------------------|

e|----------------------------------------------------------|
B|----------------------------------------------------------|
G|----------------------------------------------------------|
D|---10-------10-------10-----------------------------------|
A|---8--8--8--8--8--8--8------------------------------------|
E|----------------------------------------------------------|

e|----------------------------------------------------------|
B|----------------------------------------------------------|
G|----------------------------------------------------------|
D|---8--------8--------8------------------------------------|
A|---6--6--6--6--6--6--6------------------------------------|
E|----------------------------------------------------------|

e|----------------------------------------------------------|
B|----------------------------------------------------------|
G|----------------------------------------------------------|
D|---5--------5--------5------------------------------------|
A|---3--3--3--3--3--3--3------------------------------------|
E|----------------------------------------------------------|


Got a friends help on this one.
"            

comments powered by Disqus
↑ Back to top | Hammerfall Tabs for Carved In Stone. Lyrics for acoustic guitar and electric guitar. Tablatures and chords are parodies/interpretations of the original songs. You may use it for private study, scholarship, research or language learning purposes only