>
 >
Blood Bound

Blood Bound Bass Tabs

Hammerfall - Blood Bound chords, tabs, tablatures, lyrics

Guitar lessons | Add/correct | Request | Top 50 tabs Artists:  A B C D E F G H I J K L M N O P Q R S T U V W X Y Z 0-9

Blood Bound Bass Tabs – Hammerfall

CD, Sheet music, Poster

Do you like Blood Bound? Share with your friends now
Bass TabsBass Tabs v2TabsTabs v2Tabs v3Tabs v4
Blood Bound                                   


HammerFall
Bass (D# G# C# F#)
................



      E  S S S S S E  S S S S S S S    S S S S S S S E  S S E  S E   
F#||--------------------------------|-------------------------------|
C#||--------------------------------|-------------------------------|
G#||---------------3--3-3-3-3-3-3-2-|--L-2-2-2-2-2-2-3--3-3-5--5-5--|
D#||--0--0-0-0-0-0------------------|-------------------------------|


  E  S S S S S E  S S S S S S S    S S S S S S S E  S S E  S S  
--------------------------------|------------------------------|
--------------------------------|------------------------------|
---------------3--3-3-3-3-3-3-2-|--L-2-2-2-2-2-2-3--3-3-5--5-5-|
--0--0-0-0-0-0------------------|------------------------------|


  E  S S S S S S E  S S S S S S    E  S S S S S S S S Q.      
--------------------------------|----------------------------|
--------------------------------|----------------------------|
--------------------------------|-----------------5----------|
--0--0-0-0-0-0-0-0--0-0-0-3-2-0-|--0--0-0-0-0-0-0------------|


  E  S S S S S S E  S S S S S S    E  S S S S S S H         
--------------------------------|--------------------------|
--------------------------------|--------------------------|
--------------------------------|-----------------5--------|
--0--0-0-0-0-0-0-0--0-0-0-3-2-0-|--0--0-0-0-0-0-0----------|


  E  S S S S S S E  S S S S S S    E  S S S S S S H         
--------------------------------|--------------------------|
--------------------------------|--------------------------|
--------------------------------|-----------3-3-3-2--------|
--0--0-0-0-0-0-0-0--0-0-0-3-2-0-|--0--0-0-0----------------|


  E  S S S S S S E  S S S S S S    E  S S S S S S H         
--------------------------------|--------------------------|
--------------------------------|--------------------------|
--------------------------------|-----------------5--------|
--0--0-0-0-0-0-0-0--0-0-0-3-2-0-|--0--0-0-0-0-0-0----------|


  E  S S S S S S E  S S S S S S    E  S S S S S S H        S  
--------------------------------|----------------------------|
--------------------------------|----------------------------|
--------------------------------|-----------3-3-3-2--------L-|
--0--0-0-0-0-0-0-0--0-0-0-3-2-0-|--0--0-0-0------------------|


  S S S S S S S S S S S S S S S S    S S S S S S S S S S S S S S S S  
----------------------------------|----------------------------------|
----------------------------------|----------------------------------|
----------------------------------|--5-5-5-5-5-5-5-5-5-5-5-5-5-5-5-5-|
--3-3-3-3-3-3-3-3-3-3-3-3-3-3-3-3-|----------------------------------|


  S S S S S S S S S S S S S S S S    S S S S S S S S S S S S S S S S  
----------------------------------|----------------------------------|
----------------------------------|----------------------------------|
------------------3-3-3-3-3-3-3-3-|--5-5-5-5-5-5-5-5-2-2-2-2---------|
--0-0-0-0-0-0-0-0-----------------|--------------------------3-3-2-2-|


  E  S S S S S E  S S S S S S S    S S S S S S S E  S S S E  E   
--------------------------------|-------------------------------|
--------------------------------|-------------------------------|
---------------3--3-3-3-3-3-3---|----------------2--2-2-2-3--2--|
--0--0-0-0-0-0----------------3-|--L-3-3-3-3-3-3----------------|


  E  S S S S S E  S S S S S S S    S S S S S S S S S S S S E  E   
--------------------------------|--------------------------------|
--------------------------------|--------------------------------|
---------------3--3-3-3-3-3-3---|----------------2---------3--2--|
--0--0-0-0-0-0----------------3-|--L-3-3-3-3-3-3-----------------|


  H.           E.     E  S S S S S S E  S S S S S S    E  S S S S S S H         
-------------------|--------------------------------|--------------------------|
-------------------|--------------------------------|--------------------------|
-------------------|--------------------------------|-----------------5--------|
--0------------L---|--0--0-0-0-0-0-0-0--0-0-0-3-2-0-|--0--0-0-0-0-0-0----------|


  E  S S S S S S E  S S S S S S    E  S S S S S S H        S  
--------------------------------|----------------------------|
--------------------------------|----------------------------|
--------------------------------|-----------3-3-3-2--------L-|
--0--0-0-0-0-0-0-0--0-0-0-3-2-0-|--0--0-0-0------------------|


  S S S S S S S S S S S S S S S S    S S S S S S S S S S S S S S S S  
----------------------------------|----------------------------------|
----------------------------------|----------------------------------|
----------------------------------|--5-5-5-5-5-5-5-5-5-5-5-5-5-5-5-5-|
--3-3-3-3-3-3-3-3-3-3-3-3-3-3-3-3-|----------------------------------|


  S S S S S S S S S S S S S S S S    S S S S S S S S S S S S S S S S  
----------------------------------|----------------------------------|
----------------------------------|----------------------------------|
------------------3-3-3-3-3-3-3-3-|--5-5-5-5-5-5-5-5-2-2-2-2---------|
--0-0-0-0-0-0-0-0-----------------|--------------------------3-3-2-2-|


  E  S S S S S E  S S S S S S S    S S S S S S S E  S S S E  E   
--------------------------------|-------------------------------|
--------------------------------|-------------------------------|
---------------3--3-3-3-3-3-3---|----------------2--2-2-2-------|
--0--0-0-0-0-0----------------3-|--L-3-3-3-3-3-3----------3--2--|


  E  S S S S S E  S S S S S S S    S S S S S S S S S S S S E  E   
--------------------------------|--------------------------------|
--------------------------------|--------------------------------|
---------------3--3-3-3-3-3-3---|----------------2---------------|
--0--0-0-0-0-0----------------3-|--L-3-3-3-3-3-3-----------3--2--|


  W                   E  S S S S S S E  S S S S S S    E  S S S S S S H         
-------------------|--------------------------------|--------------------------|
-------------------|--------------------------------|--------------------------|
-------------------|--------------------------------|--------------------------|
--0----------------|--2--2-2-2-2-2---2--2-2-2-2-3---|--2--2-2-2-2-2---0--------|


  E  S S S S S S E  S S S S S S    E  S S S S S H        S  
--------------------------------|--------------------------|
--------------------------------|--------------------------|
--------------------------------|---------------0--------L-|
--2--2-2-2-2-2---2--2-2-2-2-3---|--3--3-3-3-3-3------------|


  S S S S S S S S S S S S S S S S    S S S S S S S S S S S S S S S S  
----------------------------------|----------------------------------|
----------------------------------|----------------------------------|
----------------------------------|----------------------------------|
--2-2-2-2-2-2-2-2-2-2-2-2-2-2-2-2-|--3-3-3-3-3-3-3-0-0-0-0-0-0-0-0-0-|


  S S S S S S S S S S S S S S S S    S S S S S S S S S S S S S S S S  
----------------------------------|----------------------------------|
----------------------------------|----------------------------------|
----------------------------------|----------------0-0-0-0-0-0-0-0-0-|
--2-2-2-2-2-2-2-2-2-2-2-2-2-2-2-2-|--3-3-3-3-3-3-3-------------------|


  S S S S S S S S S S S S S S S S    S S S S S S S S S S S S S S S S  
----------------------------------|----------------------------------|
----------------------------------|----------------------------------|
----------------3-3-3-3-3-3-3-3-2-|--2-2-2-2-2-2-2-3-3-3-3-5-5-5-5-5-|
--0-0-0-0-0-0-0-------------------|----------------------------------|


  S S S S S S S S S S S S S S S S    S S S S S S S S S S S S S S S S  
----------------------------------|----------------------------------|
----------------------------------|----------------------------------|
----------------3-3-3-3-3-3-3-3-2-|--2-2-2-2-2-2-2-3-3-3-3-5-5-5-5-5-|
--0-0-0-0-0-0-0-------------------|----------------------------------|


  Q.     S H        S    Q.     S Q    Q    S    Q.     S H        S  
----------------------|-----------------------|----------------------|
----------------------|-----------------------|----------------------|
-----------3--------2-|--L------L-3----5----L-|-----------3--------2-|
--0------L------------|-----------------------|--0------L------------|


  Q.     S Q    Q    S    H.           E  E     E  S S S S S E  S S S S S S S  
-----------------------|---------------------|--------------------------------|
-----------------------|---------------------|--------------------------------|
--L------L-3----5----L-|--2------------------|---------------3--3-3-3-3-3-3---|
-----------------------|---------------3--2--|--0--0-0-0-0-0----------------3-|


  S S S S S S S E  S S S E  E     E  S S S S S E  S S S S S S S  
-------------------------------|--------------------------------|
-------------------------------|--------------------------------|
----------------2--2-2-2-------|---------------3--3-3-3-3-3-3-3-|
--L-3-3-3-3-3-3----------3--2--|--0--0-0-0-0-0------------------|


  S S S S S S S S S S S S E  E     E  S S S S S E  S S S S S S S  
--------------------------------|--------------------------------|
--------------------------------|--------------------------------|
--------------------------------|---------------3--3-3-3-3-3-3---|
--2-2-2-2-2-2-2-2-2-2-2-2-3--2--|--0--0-0-0-0-0----------------3-|


  S S S S S S S E  S S S E  E     E  S S S S S E  S S S S S S S  
-------------------------------|--------------------------------|
-------------------------------|--------------------------------|
----------------2--2-2-2-------|---------------3--3-3-3-3-3-3-3-|
--L-3-3-3-3-3-3----------3--2--|--0--0-0-0-0-0------------------|


  S S S S S S S S S S S S E  E     S S S S S S S S S S S S E  E   
--------------------------------|--------------------------------|
--------------------------------|--------------------------------|
--------------------------------|--------------------------------|
--2-2-2-2-2-2-2-2-2-2-2-2-3--2--|--2-2-2-2-2-2-2-2-2-2-2-2-3--2--|


  S S S S S S S S S S S S E  E     Q    H.                             
--------------------------------|--------------------|---------------||
--------------------------------|--------------------|---------------||
--------------------------------|--------------------|---------------||
--2-2-2-2-2-2-2-2-2-2-2-2-3--2--|--0-----------------|---------------||




Duration Legend
---------------
W - whole
H - half
Q - quarter
E - 8th
S - 16th
T - 32nd
X - 64th
. - note dotted
|-n-|  - n-tuplets


Tablature Legend
----------------
L - tied note
x - dead note
g - grace note
(n) - ghost note
> - accentuded note
NH - natural harmonic
AH - artificial harmonic
TH - tapped harmonic
SH - semi harmonic
PH - pitch harmonic
h - hammer on
p - pull off
b - bend
br - bendRelease
pb - preBend
pbr - preBendRelease
brb - bendReleaseBend
\n/ - tremolo bar dip
\n - tremolo bar dive
-/n - tremolo bar Release up
/n\ - tremolo bar inverted dip
/n - tremolo bar return
-\n - tremolo bar Release down
S - shift slide
s - legato slide
/ -  slide into from below or out of upwards
\ -  slide into from above or out of downwards
~ - vibrato
W - wide vibrato
tr - trill
TP - tremolo picking
T - tapping
S - slap
P - pop
< - fade in
^ - brush up
v - brush down





Comments


Popular Hammerfall tabs & chords
Last Man Standing 2 Bass Tabs
Man On The Silver Mountain Bass Tabs
Warriors Of Faith Bass Tabs
Blood Bound 4 Tabs
Hearts On Fire (Solo) Tabs
Hearts On Fire Intro Tabs
The Dragon Lies Bleeding Tabs
Between Two Worlds Ukulele
Rebel Inside Ukulele
The Fallen One Ukulele


Song lyrics



↑ Back to top | Tablatures and chords are parodies/interpretations of the original songs. You may use it for private study, scholarship, research or language learning purposes only
© 2014 AZChords.com Contact us | Privacy policy | DMCA | Add/correct tabs | Request tabs | Top 50 tabs