» » »

Hearts On Fire Tabs (ver.1)

Artists:  A B C D E F G H I J K L M N O P Q R S T U V W X Y Z # 

Hearts On Fire Tabs (ver.1)

Hammerfall
Rating:
0/5 (0 votes)

Hard to play? Try these video lessons and learn fast.
                
INTRO
e:---------------------------------------------------------------------------------------
B:---------------------------------------------------------------------------------------
G:---------------------------------------------------------------------------------------x2
D:-------4----------------------------4--------------------4-----------------------------
A:-4-4-----------4-------5-2-4----------------4-5-2----------------4-------5-2-4---4-4-2-
E:-2-2-2---2-2-2---2-2-2--------2-2-2---2-2-2--------2-2-2---2-2-2---2-2-2-------2-------

vERS
e:---------------------------------------------------------------------------------------
B:---------------------------------------------------------------------------------------
G:---------------------------------------------------------------------------------------
D:--------------------------6---6-6-4----------------------------------------------6-6--4
A:-4-4-----4-4-----4-4----4-4---4-4-2--44444444---4-5-2-4--------------------------4-4--2
E:-2-2-----2-2-----2-2----2------------22222222---2-------2222222222-2-2-222222222-------

BRIDGE
e:---------------------------------------------------------------------------------------
B:---------------------------------------------------------------------------------------
G:---------------------------------------------------------------------------------------
D:-----------------------------------------------------------------66666666--------------
A:-6666666666666666-2222222222222-9-8-66-6666666666666666-22222222-44444444--------------
E:-4444444444444444-0000000000000-7-6-44-4444444444444444-00000000-----------------------

Ref
e:---------------------------------------------------------------------------------------
B:----------------------------------on the last time-------------------------------------
G:---------------------------------------------------------------------------------------
D:-88-6-8-88-6-8---------6-6-6-6-x2-88-6-8-88-6-8---------6-6-6-6-4-4-4-4-3--------------
A:-66-4-6-66-4-6-4-4-4-4-4-4-4-4----66-4-6-66-4-6-4-4-4-4-4-4-4-4-2-2-2-2-1--------------
E:---------------2-2-2-2--------------------------2-2-2-2--------------------------------

(intro)
e:---------------------------------------------------------------------------------------
B:---------------------------------------------------------------------------------------
G:---------------------------------------------------------------------------------------x1
D:-------4----------------------------4--------------------4-----------------------------
A:-4-4-----------4-------5-2-4----------------4-5-2----------------4-------5-2-4---4-4-2-
E:-2-2-2---2-2-2---2-2-2--------2-2-2---2-2-2--------2-2-2---2-2-2---2-2-2-------2-------

Vers
e:---------------------------------------------------------------------------------------
B:---------------------------------------------------------------------------------------
G:---------------------------------------------------------------------------------------
D:--------------------------6---6-6-4----------------------------------------------6-6--4
A:-4-4-----4-4-----4-4----4-4---4-4-2--44444444---4-5-2-4--------------------------4-4--2
E:-2-2-----2-2-----2-2----2------------22222222---2-------2222222222-2-2-222222222-------

BRIDGE
e:---------------------------------------------------------------------------------------
B:---------------------------------------------------------------------------------------
G:---------------------------------------------------------------------------------------
D:-----------------------------------------------------------------66666666--------------
A:-6666666666666666-2222222222222-9-8-66-6666666666666666-22222222-44444444--------------
E:-4444444444444444-0000000000000-7-6-44-4444444444444444-00000000-----------------------

Ref
e:-----------------------------------------------------------------------------------
B:----------------------------------on the last time---------------------------------
G:-----------------------------------------------------------------------------------
D:-88-6-8-88-6-8---------6-6-6-6-x2-88-6-8-88-6-8---------6-6-6-6-4-4-4-4-3----------
A:-66-4-6-66-4-6-4-4-4-4-4-4-4-4----66-4-6-66-4-6-4-4-4-4-4-4-4-4-2-2-2-2-1----------
E:---------------2-2-2-2--------------------------2-2-2-2----------------------------

Then solo...comp guitar

e:-----------------------------------------------------------------------------------
B:-----------------------------------------------------------------------------------
G:-----------------------------------------------------------------------------------
D:-6-6-6-6-6-6-6-6-2-2-2-2-4-4-4-4-6-6-6-6-6-6-6-6-2-24-4-----2-4--x2----------------
A:-4-4-4-4-4-4-4-4-0-0-0-0-2-2-2-2-4-4-4-4-4-4-4-4-0-02-22-24-0-2--------------------
E:-------------------------------------------------------0-02------------------------

BRIDGE
e:-----------------------------------------------------------------------------------
B:-----------------------------------------------------------------------------------
G:-----------------------------------------------------------------------------------
D:-----------------------------------------------------------------66666666----------
A:-6666666666666666-2222222222222-9-8-66-6666666666666666-22222222-44444444----------
E:-4444444444444444-0000000000000-7-6-44-4444444444444444-00000000-------------------

Then REF
e:-----------------------------------------------------------------------------------
B:----------------------------------on the last time---------------------------------
G:-----------------------------------------------------------------------------------
D:-88-6-8-88-6-8---------6-6-6-6-x2-88-6-8-88-6-8---------6-6-6-6-4-4-4-4-3----------
A:-66-4-6-66-4-6-4-4-4-4-4-4-4-4----66-4-6-66-4-6-4-4-4-4-4-4-4-4-2-2-2-2-1----------
E:---------------2-2-2-2--------------------------2-2-2-2----------------------------

Then some stupid end.. =)
            
Hard to play? Try these video lessons and learn fast. | Correct




comments powered by Disqus
↑ Back to top | Tablatures and chords are parodies/interpretations of the original songs. You may use it for private study, scholarship, research or language learning purposes only