>
 >
Carved In Stone

Carved In Stone Bass Tabs

Hammerfall - Carved In Stone chords, tabs, tablatures, lyrics

Guitar lessons | Add/correct | Request | Top 50 tabs Artists:  A B C D E F G H I J K L M N O P Q R S T U V W X Y Z 0-9

Carved In Stone Bass Tabs – Hammerfall

CD, Sheet music, Poster

Do you like Carved In Stone? Share with your friends now
Bass Tabs
Carved in Stone                                 


Hammerfall
Bass (D G C F)



     |--3--|  |--3--|  |--3--|  |--3--|   
     E  E  E  E  E  E  E  E  E  E  E  E   
F||--------------------------------------|
C||--------------------------------------|
G||--8--------8--------8--------8--------|
D||--------------------------------------|


  |--3--|  |--3--|  |--3--|  |--3--|     |--3--|  |--3--|  |--3--|  |--3--|   
  E  E  E  E  E  E  E  E  E  E  E  E     E  E  E  E  E  E  E  E  E  E  E  E   
--------------------------------------|--------------------------------------|
--------------------------------------|--------------------------------------|
--6--------6--------6-----------------|--8--------8--------8--------8--------|
--------------------------------------|--------------------------------------|


  |--3--|  |--3--|  |--3--|  |--3--|     |--3--|  |--3--|  |--3--|  |--3--|   
  E  E  E  E  E  E  E  E  E  E  E  E     E  E  E  E  E  E  E  E  E  E  E  E   
--------------------------------------|--------------------------------------|
--------------------------------------|--------------------------------------|
--6--------6--------6-----------------|--4--------4--------4--------4--------|
--------------------------------------|--------------------------------------|


  |--3--|  |--3--|  |--3--|  |--3--|     |--3--|  |--3--|  |--3--|  |--3--|   
  E  E  E  E  E  E  E  E  E  E  E  E     E  E  E  E  E  E  E  E  E  E  E  E   
--------------------------------------|--------------------------------------|
--------------------------------------|--------------------------------------|
--8--------8--------8-----------------|--6--------6--------6-----------------|
--------------------------------------|--------------------------------------|


  |--3--|  |--3--|  |----3----|       |--3--|  |--3--|  |--3--|  |--3--|   
  E  E  E  E  E  E  Q    Q    Q       E  E  E  E  E  E  E  E  E  E  E  E   
-----------------------------------|--------------------------------------|
-----------------------------------|--------------------------------------|
--3--------3--------3----L----L----|--8--8--8--8--8--8--8--8--8--8--8--8--|
-----------------------------------|--------------------------------------|


  |--3--|  |--3--|  |--3--|  |--3--|     |--3--|  |--3--|  |--3--|  |--3--|   
  E  E  E  E  E  E  E  E  E  E  E  E     E  E  E  E  E  E  E  E  E  E  E  E   
--------------------------------------|--------------------------------------|
--------------------------------------|--------------------------------------|
--6--6--6--6--6--6--6--6--6--6--6--6--|--8--8--8--8--8--8--8--8--8--8--8--8--|
--------------------------------------|--------------------------------------|


  |--3--|  |--3--|  |--3--|  |--3--|     |--3--|  |--3--|  |--3--|  |--3--|   
  E  E  E  E  E  E  E  E  E  E  E  E     E  E  E  E  E  E  E  E  E  E  E  E   
--------------------------------------|--------------------------------------|
--------------------------------------|--------------------------------------|
--6--6--6--6--6--6--6--6--6--6--6--6--|--4--4--4--4--4--4--4--4--4--4--4--4--|
--------------------------------------|--------------------------------------|


  |--3--|  |--3--|  |--3--|  |--3--|     |--3--|  |--3--|  |--3--|  |--3--|   
  E  E  E  E  E  E  E  E  E  E  E  E     E  E  E  E  E  E  E  E  E  E  E  E   
--------------------------------------|--------------------------------------|
--------------------------------------|--------------------------------------|
--8--8--8--8--8--8--8--8--8--8--8--8--|--6--6--6--6--6--6--6--6--6--6--6--6--|
--------------------------------------|--------------------------------------|


  |--3--|  |--3--|  |--3--|  |--3--|     |--3--|  |--3--|  |--3--|  |--3--|   
  E  E  E  E  E  E  E  E  E  E  E  E     E  E  E  E  E  E  E  E  E  E  E  E   
--------------------------------------|--------------------------------------|
--------------------------------------|--------------------------------------|
--3--3--3--3--3--3--3--3--3--3--3--3--|--8--8--8--8--8--8--8--8--8--8--8--8--|
--------------------------------------|--------------------------------------|


  |--3--|  |--3--|  |--3--|  |--3--|     |--3--|  |--3--|  |--3--|  |--3--|   
  E  E  E  E  E  E  E  E  E  E  E  E     E  E  E  E  E  E  E  E  E  E  E  E   
--------------------------------------|--------------------------------------|
--------------------------------------|--------------------------------------|
--6--6--6--6--6--6--6--6--6--6--6--6--|--8--8--8--8--8--8--8--8--8--8--8--8--|
--------------------------------------|--------------------------------------|


  |--3--|  |--3--|  |--3--|  |--3--|     |--3--|  |--3--|  |--3--|  |--3--|   
  E  E  E  E  E  E  E  E  E  E  E  E     E  E  E  E  E  E  E  E  E  E  E  E   
--------------------------------------|--------------------------------------|
--------------------------------------|--------------------------------------|
--6--6--6--6--6--6--6--6--6--6--6--6--|--4--4--4--4--4--4--4--4--4--4--4--4--|
--------------------------------------|--------------------------------------|


  |--3--|  |--3--|  |--3--|  |--3--|     |--3--|  |--3--|  |--3--|  |--3--|   
  E  E  E  E  E  E  E  E  E  E  E  E     E  E  E  E  E  E  E  E  E  E  E  E   
--------------------------------------|--------------------------------------|
--------------------------------------|--------------------------------------|
--8--8--8--8--8--8--8--8--8--8--8--8--|--6--6--6--6--6--6--6--6--6--6--6--6--|
--------------------------------------|--------------------------------------|


  |--3--|  |--3--|  |--3--|  |--3--|     |--3--|  |--3--|  |--3--|  |--3--|   
  E  E  E  E  E  E  E  E  E  E  E  E     E  E  E  E  E  E  E  E  E  E  E  E   
--------------------------------------|--------------------------------------|
--------------------------------------|--------------------------------------|
--3--3--3--3--3--3--3--3--3--3--3--3--|--4--4--4--4--4--4--4--4--4--4--4--4--|
--------------------------------------|--------------------------------------|


  |--3--|  |--3--|  |--3--|  |--3--|     |--3--|  |--3--|  |--3--|  |--3--|   
  E  E  E  E  E  E  E  E  E  E  E  E     E  E  E  E  E  E  E  E  E  E  E  E   
--------------------------------------|--------------------------------------|
--------------------------------------|--------------------------------------|
--1--1--1--1--1--1--1--1--1--1--1--1--|--6--6--6--6--6--6--6--6--6--6--6--6--|
--------------------------------------|--------------------------------------|


  |--3--|  |--3--|  |--3--|  |--3--|     |--3--|  |--3--|  |--3--|  |--3--|   
  E  E  E  E  E  E  E  E  E  E  E  E     E  E  E  E  E  E  E  E  E  E  E  E   
--------------------------------------|--------------------------------------|
--------------------------------------|--------------------------------------|
--8--8--8--8--8--8--8--L--L--L--L--L--|--3--L--3--3--3--3--3--L--3--3--3--3--|
--------------------------------------|--------------------------------------|


  |--3--|  |--3--|  |--3--|  |--3--|     |--3--|  |--3--|  |--3--|  |--3--|   
  E  E  E  E  E  E  E  E  E  E  E  E     E  E  E  E  E  E  E  E  E  E  E  E   
--------------------------------------|--------------------------------------|
--------------------------------------|--------------------------------------|
--6--L--6--6--6--6--6--L--6--6--6--6--|--------------------------------------|
--------------------------------------|--1--1--1--1--1--1--1--1--1--1--1--1--|


  |--3--|  |--3--|  |--3--|  |--3--|     |--3--|  |--3--|  |--3--|  |--3--|   
  E  E  E  E  E  E  E  E  E  E  E  E     E  E  E  E  E  E  E  E  E  E  E  E   
--------------------------------------|--------------------------------------|
--------------------------------------|--------------------------------------|
--4--4--4--4--4--4--4--4--4--6--6--6--|--8--L--8--8--8--8--8--L--8--8--8--8--|
--------------------------------------|--------------------------------------|


  |--3--|  |--3--|  |--3--|  |--3--|     |--3--|  |--3--|  |--3--|  |--3--|   
  E  E  E  E  E  E  E  E  E  E  E  E     E  E  E  E  E  E  E  E  E  E  E  E   
--------------------------------------|--------------------------------------|
--------------------------------------|--------------------------------------|
--6-----6--6--6--6--6-----6--6--6--6--|--------------------------------------|
--------------------------------------|--1--1--1--1--1--1--1--1--1--1--1--1--|


  |--3--|  |--3--|  |--3--|  |--3--|     |--3--|  |--3--|  |--3--|  |--3--|   
  E  E  E  E  E  E  E  E  E  E  E  E     E  E  E  E  E  E  E  E  E  E  E  E   
--------------------------------------|--------------------------------------|
--------------------------------------|--------------------------------------|
--4--4--4--4--4--4--4--4--4--6--6--6--|--8--8--8--8--8--8--8--8--8--8--8--8--|
--------------------------------------|--------------------------------------|


  |--3--|  |--3--|  |--3--|  |--3--|     |--3--|  |--3--|  |--3--|  |--3--|   
  E  E  E  E  E  E  E  E  E  E  E  E     E  E  E  E  E  E  E  E  E  E  E  E   
--------------------------------------|--------------------------------------|
--------------------------------------|--------------------------------------|
--6--6--6--6--6--6--6--6--6--6--6--6--|--8--8--8--8--8--8--8--8--8--8--8--8--|
--------------------------------------|--------------------------------------|


  |--3--|  |--3--|  |--3--|  |--3--|     |--3--|  |--3--|  |--3--|  |--3--|   
  E  E  E  E  E  E  E  E  E  E  E  E     E  E  E  E  E  E  E  E  E  E  E  E   
--------------------------------------|--------------------------------------|
--------------------------------------|--------------------------------------|
--6--6--6--6--6--6--6--6--6--6--6--6--|--4--4--4--4--4--4--4--4--4--4--4--4--|
--------------------------------------|--------------------------------------|


  |--3--|  |--3--|  |--3--|  |--3--|     |--3--|  |--3--|  |--3--|  |--3--|   
  E  E  E  E  E  E  E  E  E  E  E  E     E  E  E  E  E  E  E  E  E  E  E  E   
--------------------------------------|--------------------------------------|
--------------------------------------|--------------------------------------|
--8--8--8--8--8--8--8--8--8--8--8--8--|--6--6--6--6--6--6--6--6--6--6--6--6--|
--------------------------------------|--------------------------------------|


  |--3--|  |--3--|  |--3--|  |--3--|     |--3--|  |--3--|  |--3--|  |--3--|   
  E  E  E  E  E  E  E  E  E  E  E  E     E  E  E  E  E  E  E  E  E  E  E  E   
--------------------------------------|--------------------------------------|
--------------------------------------|--------------------------------------|
--3--3--3--3--3--3--3--3--3--3--3--3--|--8--8--8--8--8--8--8--8--8--8--8--8--|
--------------------------------------|--------------------------------------|


  |--3--|  |--3--|  |--3--|  |--3--|     |--3--|  |--3--|  |--3--|  |--3--|   
  E  E  E  E  E  E  E  E  E  E  E  E     E  E  E  E  E  E  E  E  E  E  E  E   
--------------------------------------|--------------------------------------|
--------------------------------------|--------------------------------------|
--6--6--6--6--6--6--6--6--6--6--6--6--|--8--8--8--8--8--8--8--8--8--8--8--8--|
--------------------------------------|--------------------------------------|


  |--3--|  |--3--|  |--3--|  |--3--|     |--3--|  |--3--|  |--3--|  |--3--|   
  E  E  E  E  E  E  E  E  E  E  E  E     E  E  E  E  E  E  E  E  E  E  E  E   
--------------------------------------|--------------------------------------|
--------------------------------------|--------------------------------------|
--6--6--6--6--6--6--6--6--6--6--6--6--|--4--4--4--4--4--4--4--4--4--4--4--4--|
--------------------------------------|--------------------------------------|


  |--3--|  |--3--|  |--3--|  |--3--|     |--3--|  |--3--|  |--3--|  |--3--|   
  E  E  E  E  E  E  E  E  E  E  E  E     E  E  E  E  E  E  E  E  E  E  E  E   
--------------------------------------|--------------------------------------|
--------------------------------------|--------------------------------------|
--8--8--8--8--8--8--8--8--8--8--8--8--|--6--6--6--6--6--6--6--6--6--6--6--6--|
--------------------------------------|--------------------------------------|


  |--3--|  |--3--|  |--3--|  |--3--|     |--3--|  |--3--|  |--3--|  |--3--|   
  E  E  E  E  E  E  E  E  E  E  E  E     E  E  E  E  E  E  E  E  E  E  E  E   
--------------------------------------|--------------------------------------|
--------------------------------------|--------------------------------------|
--3--3--3--3--3--3--3--3--3--3--3--3--|--4--4--4--4--4--4--4--4--4--4--4--4--|
--------------------------------------|--------------------------------------|


  |--3--|  |--3--|  |--3--|  |--3--|     |--3--|  |--3--|  |--3--|  |--3--|   
  E  E  E  E  E  E  E  E  E  E  E  E     E  E  E  E  E  E  E  E  E  E  E  E   
--------------------------------------|--------------------------------------|
--------------------------------------|--------------------------------------|
--1--1--1--1--1--1--1--1--1--1--1--1--|--6--6--6--6--6--6--6--6--6--6--6--6--|
--------------------------------------|--------------------------------------|


  |--3--|  |--3--|  |--3--|  |--3--|     |--3--|  |--3--|  |--3--|  |--3--|   
  E  E  E  E  E  E  E  E  E  E  E  E     E  E  E  E  E  E  E  E  E  E  E  E   
--------------------------------------|--------------------------------------|
--------------------------------------|--------------------------------------|
--8--8--8--8--8--8--8--L--L--L--L--L--|--3--L--3--3--3--3--3--L--3--3--3--3--|
--------------------------------------|--------------------------------------|


  |--3--|  |--3--|  |--3--|  |--3--|     |--3--|  |--3--|  |--3--|  |--3--|   
  E  E  E  E  E  E  E  E  E  E  E  E     E  E  E  E  E  E  E  E  E  E  E  E   
--------------------------------------|--------------------------------------|
--------------------------------------|--------------------------------------|
--6--L--6--6--6--6--6--L--6--6--6--6--|--------------------------------------|
--------------------------------------|--1--1--1--1--1--1--1--1--1--1--1--1--|


  |--3--|  |--3--|  |--3--|  |--3--|     |--3--|  |--3--|  |--3--|  |--3--|   
  E  E  E  E  E  E  E  E  E  E  E  E     E  E  E  E  E  E  E  E  E  E  E  E   
--------------------------------------|--------------------------------------|
--------------------------------------|--------------------------------------|
--4--4--4--4--4--4--4--4--4--6--6--6--|--8--L--8--8--8--8--8--L--8--8--8--8--|
--------------------------------------|--------------------------------------|


  |--3--|  |--3--|  |--3--|  |--3--|     |--3--|  |--3--|  |--3--|  |--3--|   
  E  E  E  E  E  E  E  E  E  E  E  E     E  E  E  E  E  E  E  E  E  E  E  E   
--------------------------------------|--------------------------------------|
--------------------------------------|--------------------------------------|
--6-----6--6--6--6--6-----6--6--6--6--|--------------------------------------|
--------------------------------------|--1--1--1--1--1--1--1--1--1--1--1--1--|


  |--3--|  |--3--|  |--3--|  |--3--|     |--3--|  |--3--|  |--3--|        
  E  E  E  E  E  E  E  E  E  E  E  E     E  E  E  E  E  E  E  E  E  Q     
--------------------------------------|----------------------------------|
--------------------------------------|----------------------------------|
--4--4--4--4--4--4--6--6--6--8--8--8--|--8-------------------------------|
--------------------------------------|-----------------------8--8--8----|


  |--3--|  |--3--|  |--3--|          |--3--|  |--3--|  |--3--|        
  E  E  E  E  E  E  E  E  E  Q       E  E  E  E  E  E  E  E  E  Q     
----------------------------------|----------------------------------|
----------------------------------|----------------------------------|
--6-------------------------------|--8-------------------------------|
-----------------------6--6--6----|-----------------------8--8--8----|


  |--3--|  |--3--|  |--3--|  |--3--|     |--3--|  |--3--|  |--3--|  |--3--|   
  E  E  E  E  E  E  E  E  E  E  E  E     E  E  E  E  E  E  E  E  E  E  E  E   
--------------------------------------|--------------------------------------|
--------------------------------------|--------------------------------------|
--------------------3-----------------|--8--8--8--8--8--8--8-----------------|
--3--3--3--3--3--3--------------------|-----------------------8--8--8--8--8--|


  |--3--|  |--3--|  |--3--|  |--3--|     |--3--|  |--3--|  |--3--|  |--3--|   
  E  E  E  E  E  E  E  E  E  E  E  E     E  E  E  E  E  E  E  E  E  E  E  E   
--------------------------------------|--------------------------------------|
--------------------------------------|--------------------------------------|
--6--6--6--6--6--6--6-----------------|--8--8--8--8--8--8--8-----------------|
-----------------------6--6--6--6--6--|-----------------------8--8--8--8--8--|


  |--3--|  |--3--|  |--3--|  |--3--|     |--3--|  |--3--|  |---3---|         
  E  E  E  E  E  E  E  E  E  E  E  E     E  E  E  E  E  E  E   E   E   Q     
--------------------------------------|-------------------------------------|
--------------------------------------|-------------------------------------|
--------------------3--3--3--3--3--3--|-------------------------------------|
--3--3--3--3--3--3--------------------|--8--8--8--8--8--8--8--10--11--10----|


   |---3---|   |---3---|  |--3--|          |--3--|  |--3--|  |---3---|         
   E   E   E   E   E   E  E  E  E  Q       E  E  E  E  E  E  E   E   E   Q     
----------------------------------------|-------------------------------------|
----------------------------------------|-------------------------------------|
-----------------------------------3----|-------------------------------------|
--10--10--10--10--10--10--3--3--3-------|--8--8--8--8--8--8--8--10--11--10----|


  |--3--|  |--3--|  |--3--|  |--3--|     |--3--|  |--3--|  |---3---|         
  E  E  E  E  E  E  E  E  E  E  E  E     E  E  E  E  E  E  E   E   E   Q     
--------------------------------------|-------------------------------------|
--------------------------------------|-------------------------------------|
--------------------------------------|-------------------------------------|
--6--6--6--3--3--3--4--4--4--4--4--4--|--8--8--8--8--8--8--8--10--11--10----|


   |---3---|   |---3---|  |--3--|          |--3--|  |--3--|  |---3---|         
   E   E   E   E   E   E  E  E  E  Q       E  E  E  E  E  E  E   E   E   Q     
----------------------------------------|-------------------------------------|
----------------------------------------|-------------------------------------|
-----------------------------------3----|-------------------------------------|
--10--10--10--10--10--10--3--3--3-------|--8--8--8--8--8--8--8--10--11--10----|


  |--3--|  |--3--|  |--3--|  |--3--|     |--3--|  |--3--|  |--3--|  |--3--|   
  E  E  E  E  E  E  E  E  E  E  E  E     E  E  E  E  E  E  E  E  E  E  E  E   
--------------------------------------|--------------------------------------|
--------------------------------------|--------------------------------------|
--------------------------------------|--------------------------------------|
--6--6--6--3--3--3--4--4--4--1--1--1--|--3--3--3--3--3--3--3--3--3--3--3--3--|


  |--3--|  |--3--|  |--3--|  |--3--|          |--3--|       |--3--|   
  E  E  E  E  E  E  E  E  E  E  E  E     Q    E  E  E  Q    E  E  E   
--------------------------------------|------------------------------|
--------------------------------------|------------------------------|
--------------------------------------|------------------------------|
--3--3--3--3--3--3--1--1--1--3--3--3--|--4----4--4--4--4----4--4--4--|


       |--3--|                    |--3--|       |--3--|   
  Q    E  E  E  Q    Q       Q    E  E  E  Q    E  E  E   
--------------------------|------------------------------|
--------------------------|------------------------------|
--6----6--6--6--6----6----|------------------------------|
--------------------------|--1----1--1--1--1----1--1--1--|


       |--3--|  |--3--|  |--3--|          |--3--|       |--3--|   
  Q    E  E  E  E  E  E  E  E  E     Q    E  E  E  Q    E  E  E   
----------------------------------|------------------------------|
----------------------------------|------------------------------|
--4----4--4--4--4--3--1--4--3--1--|------------------------------|
----------------------------------|--4----4--4--4--4----4--4--4--|


       |--3--|                    |--3--|       |--3--|   
  Q    E  E  E  Q    Q       Q    E  E  E  Q    E  E  E   
--------------------------|------------------------------|
--------------------------|------------------------------|
--6----6--6--6--6----6----|------------------------------|
--------------------------|--1----1--1--1--1----1--1--1--|


       |--3--|               |--3--|  |--3--|  |--3--|  |--3--|   
  Q    E  E  E  Q    Q       E  E  E  E  E  E  E  E  E  E  E  E   
--------------------------|--------------------------------------|
--------------------------|--------------------------------------|
--------------------------|--5-----5--5--5--5--5-----5--5--5--5--|
--4----4--3--4--6----4----|--------------------------------------|


  |--3--|  |--3--|  |--3--|  |--3--|     |--3--|  |--3--|  |--3--|  |--3--|   
  E  E  E  E  E  E  E  E  E  E  E  E     E  E  E  E  E  E  E  E  E  E  E  E   
--------------------------------------|--------------------------------------|
--------------------------------------|--------------------------------------|
--3-----3--3--3--3--3-----3--3--3--3--|--1-----1--1--1--1--1-----1--1--1--1--|
--------------------------------------|--------------------------------------|


  |--3--|  |--3--|  |--3--|  |--3--|     |--3--|  |--3--|  |--3--|  |--3--|   
  E  E  E  E  E  E  E  E  E  E  E  E     E  E  E  E  E  E  E  E  E  E  E  E   
--------------------------------------|--------------------------------------|
--------------------------------------|--------------------------------------|
--1-----1--1--1--1--1-----1--1--1--1--|--5-----5--5--5--5--5-----5--5--5--5--|
--------------------------------------|--------------------------------------|


  |--3--|  |--3--|  |--3--|  |--3--|     |--3--|  |--3--|  |--3--|  |--3--|   
  E  E  E  E  E  E  E  E  E  E  E  E     E  E  E  E  E  E  E  E  E  E  E  E   
--------------------------------------|--------------------------------------|
--------------------------------------|--------------------------------------|
--3-----3--3--3--3--3-----3--3--3--3--|--1-----1--1--1--1--1-----1--1--1--1--|
--------------------------------------|--------------------------------------|


  |--3--|  |--3--|  |--3--|  |--3--|     |--3--|  |--3--|  |--3--|  |--3--|   
  E  E  E  E  E  E  E  E  E  E  E  E     E  E  E  E  E  E  E  E  E  E  E  E   
--------------------------------------|--------------------------------------|
--------------------------------------|--------------------------------------|
--6--------6--4--6--8-----------------|--5-----5--5--5--5--5-----5--5--5--5--|
--------------------------------------|--------------------------------------|


  |--3--|  |--3--|  |--3--|  |--3--|     |--3--|  |--3--|  |--3--|  |--3--|   
  E  E  E  E  E  E  E  E  E  E  E  E     E  E  E  E  E  E  E  E  E  E  E  E   
--------------------------------------|--------------------------------------|
--------------------------------------|--------------------------------------|
--3-----3--3--3--3--3-----3--3--3--3--|--1-----1--1--1--1--1-----1--1--1--1--|
--------------------------------------|--------------------------------------|


  |--3--|  |--3--|  |--3--|  |--3--|     |--3--|  |--3--|  |--3--|  |--3--|   
  E  E  E  E  E  E  E  E  E  E  E  E     E  E  E  E  E  E  E  E  E  E  E  E   
--------------------------------------|--------------------------------------|
--------------------------------------|--------------------------------------|
--1-----1--1--1--1--1-----1--1--1--1--|--5-----5--5--5--5--5-----5--5--5--5--|
--------------------------------------|--------------------------------------|


  |--3--|  |--3--|  |--3--|  |--3--|     |--3--|  |--3--|  |--3--|  |--3--|   
  E  E  E  E  E  E  E  E  E  E  E  E     E  E  E  E  E  E  E  E  E  E  E  E   
--------------------------------------|--------------------------------------|
--------------------------------------|--------------------------------------|
--3-----3--3--3--3--3-----3--3--3--3--|--1-----1--1--1--1--1-----1--1--1--1--|
--------------------------------------|--------------------------------------|


  |--3--|  |--3--|  |--3--|  |--3--|            
  E  E  E  E  E  E  E  E  E  E  E  E            
--------------------------------------|-------||
--------------------------------------|-------||
--1--------1--0--1--3-----------------|-------||
--------------------------------------|-------||




Duration Legend
---------------
W - whole
H - half
Q - quarter
E - 8th
S - 16th
T - 32nd
X - 64th
. - note dotted
|-n-|  - n-tuplets


Tablature Legend
----------------
L - tied note
x - dead note
g - grace note
(n) - ghost note
> - accentuded note
NH - natural harmonic
AH - artificial harmonic
TH - tapped harmonic
SH - semi harmonic
PH - pitch harmonic
h - hammer on
p - pull off
b - bend
br - bendRelease
pb - preBend
pbr - preBendRelease
brb - bendReleaseBend
\n/ - tremolo bar dip
\n - tremolo bar dive
-/n - tremolo bar Release up
/n\ - tremolo bar inverted dip
/n - tremolo bar return
-\n - tremolo bar Release down
S - shift slide
s - legato slide
/ -  slide into from below or out of upwards
\ -  slide into from above or out of downwards
~ - vibrato
W - wide vibrato
tr - trill
TP - tremolo picking
T - tapping
S - slap
P - pop
< - fade in
^ - brush up
v - brush down





Comments


Popular Hammerfall tabs & chords
Genocide 2 Bass Tabs
Glory To The Brave Bass Tabs
Reign Of The Hammer Bass Tabs
Secrets Bass Tabs
Steel Meets Steel Bass Tabs
Always Will Be 1 Chords
Last Man Standing 3 Tabs
The Way Of The Warrior Tabs
Warriors Of Faith Tabs
Between Two Worlds Ukulele


Song lyrics



↑ Back to top | Tablatures and chords are parodies/interpretations of the original songs. You may use it for private study, scholarship, research or language learning purposes only
© 2014 AZChords.com Contact us | Privacy policy | DMCA | Add/correct tabs | Request tabs | Top 50 tabs