>
 >
Life Support 2

Life Support 2 Guitar Tabs

Hale - Life Support 2 chords, tabs, tablatures, lyrics

Guitar lessons | Add/correct | Request | Top 50 tabs Artists:  A B C D E F G H I J K L M N O P Q R S T U V W X Y Z 0-9

Life Support 2 Guitar Tabs – Hale

CD, Sheet music, Poster

Do you like Life Support 2? Share with your friends now
ChordsChords v2TabsTabs v2Tabs v3Ukulele
Life Support - Hale
Standard Tuning EADGBe

Chords:

C#m - x46600
A - 002200 or 577x00
E - 022100
G#m - 466x00
B - x24400

Intro:

e|-----------------------------------------|
B|----4-4-4-----4-4-4-----5-5-5-----5-5-5--|
G|-----------------------------------------|
D|-----------------------------------------|
A|--4---------0----------------------------|
E|----------------------0---------4--------|

Verse 1:

e|-----------------------------------------|    |--------------------|
B|----4-4-4-----4-4-4-----5-5-5-----5-5-5--|    |----4-4-4----4-45---|
G|-----------------------------------------| 2x |--------------------|
D|-----------------------------------------|    |--------------------|
A|--4---------0----------------------------|    |--4--------0--------|
E|----------------------0---------4--------|    |--------------------|

Sarcastic smiles and fake hellos
we try to hide but always
Leave an open door behind
To escape from reality

Refrain: [C#m-A]

Why are you crying?
Why are you crying?

Chorus: [E-G#m]

plus this riff..

e|-------------------------------------------------|
B|-------------------------------------------------|
G|--8h9h8h9h8h9h8h9h8h9h8h9h8h9h8------------------| 2x
D|--------------------------------9-9-9-9-9-9-9-9--|
A|-------------------------------------------------|
E|-------------------------------------------------|

HoOooooo...
HoOooooo...
HoOooooo...
HoOooooo...

Verse 2:

e|-----------------------------------------|    |---------------------|
B|----4-4-4-----4-4-4-----5-5-5-----5-5-5--|    |----4-4-4-----4-4-4--|
G|-----------------------------------------| 2x |---------------------|
D|-----------------------------------------|    |---------------------|
A|--4---------0----------------------------|    |--4---------0--------|
E|----------------------0---------4--------|    |---------------------|

It felt so sure the way you said no
We're throwing lies at someone
We don't know, we don't know

e|-----------------------------------------|
B|----4-4-4-----4-4-4-----5-5-5-----5-5-5--|
G|-----------------------------------------| 2x
D|-----------------------------------------|
A|--4---------0----------------------------|
E|----------------------0---------4--------|

add this...

e|--77-44----------------| |--------------44-77-44----------------|
B|--------77-44----------| |--------44-77----------77-44----------|
G|--------------66-44----| |--44-66----------------------66-44----| 3x
D|--------------------6--| |-----------------------------------6--|
A|-----------------------| |--------------------------------------|
E|-----------------------| |--------------------------------------|

Why can't we risk our lives
For something that we can't deny
We try to run from something
We don't know, we don't know
Is this reality?

e|--------------------------------------|
B|----4-4-4----4-4-4----4-4-4----4-45---|
G|--------------------------------------|
D|--------------------------------------|
A|--4--------0--------4--------0--------|
E|--------------------------------------|

Refrain: [C#m-A]

Why are you crying?
Why are you crying?

Chorus: [E-G#m]

plus this riff..

e|-------------------------------------------------|
B|-------------------------------------------------|
G|--8h9h8h9h8h9h8h9h8h9h8h9h8h9h8------------------| 4x
D|--------------------------------9-9-9-9-9-9-9-9--|
A|-------------------------------------------------|
E|-------------------------------------------------|

HoOooooo...
HoOooooo...
HoOooooo...
HoOooooo...
HoOooooo...
HoOooooo...
HoOooooo...
HoOooooo...

Bridge: [B-C#m-G#m-A]

e|-----------------------------------|
B|-----------------------------------|
G|------------------9-9-9-9-9-9-9-9--| 2x
D|--9-9-9-9-9-9-9-9------------------|
A|-----------------------------------|
E|-----------------------------------|

e|---------------------------------------------------|
B|---------------------------------------------------|
G|--8-8-8-8-8-8-8-8-8h9h8h9h8h9h8h9h8h9h8h9h8h9h8h9--| 2x
D|---------------------------------------------------|
A|---------------------------------------------------|
E|---------------------------------------------------|

I feel so sorry
I feel so sorry
I feel so sorry
I feel so sorry

                 [A-E----]
e|------------| |-------------------|
B|-----4-4-4--| |-------------------|
G|------------| |--8h9h8h9h8h9h8h9--|
D|------------| |-------------------|
A|--4---------| |-------------------|
E|------------| |-------------------|

Chorus: [E-G#m]

plus this riff..

e|-------------------------------------------------|
B|-------------------------------------------------|
G|--8h9h8h9h8h9h8h9h8h9h8h9h8h9h8------------------|
D|--------------------------------9-9-9-9-9-9-9-9--|
A|-------------------------------------------------|
E|-------------------------------------------------|

HoOooooo...
HoOooooo...
HoOooooo...
HoOooooo...

Outro:

e|------------| |--------|
B|-----4-4-4--| |-----s--|
G|------------| |--x--t--|
D|------------| |--7--r--|
A|--4---------| |--5--u--|
E|------------| |--5--m--|

I feel so sorry for me...

e|--77-44--------|
B|--------77-44--|
G|---------------| 'til fade
D|---------------|
A|---------------|
E|---------------|

e|-------------------|
B|-------------------|
G|--8h9h8h9h8h9h8h9--| 'til fade
D|-------------------|
A|-------------------|
E|-------------------|


- END -
Thanks! Enjoy! Please rate! ^^





Comments


Popular Hale tabs & chords
Kahit Pa 2 Bass Tabs
78 Chords
Day You Said Goodnight 2 Chords
Kahit Pa 1 Chords
Shooting Star 2 Chords
Bahay Kubo Ukulele
Blue Sky Ukulele
Life Support Ukulele
Starting Over Ukulele
Vectors Ukulele


Song lyrics



↑ Back to top | Tablatures and chords are parodies/interpretations of the original songs. You may use it for private study, scholarship, research or language learning purposes only
© 2014 AZChords.com Contact us | Privacy policy | DMCA | Add/correct tabs | Request tabs | Top 50 tabs