» » »

Hale, Kung Wala Ka Tabs (ver.1)

Artists:  A B C D E F G H I J K L M N O P Q R S T U V W X Y Z # 

Kung Wala Ka Tabs (ver.1)

Hale Tabs
 Rating:
4/5 (10 votes)
Kung Wala Ka lessons Tabs too difficult? Try these video lessons and learn fast
1
                 
	Astig tong song na to! Enjoy! Pakinggan nyo na lang ung song para sa strumming!
Paki-rate na din! Batiin ko lang lahat ng my kilala saken! Hello!

Standard Tuning

INTRO
		
e|------3-------------3----3----0---|
B|------3-------------3-------------|
G|----------------------------------|
D|--------------------X-------------|
A|------X-------------3-------------|
E|------3---------------------------|

Verse:

    Matapos na ang lahat…	Andito pa rin ako…	
e|-----3------------3-----------3------------3------------------------|
B|-----3------------3-----------3------------3------------------------|
G|--------------------------------------------------------------------|
D|------------------x------------------------x------------------------|
A|-----x------------3-----------x------------3------------------------|
E|-----3------------------------3-------------------------------------|

    Hetong nakatulala…         Sa mundo, sa mundo ohh…
e|-----3------------3-----------3------------3------------------------|
B|-----3------------3-----------3------------3------------------------|
G|--------------------------------------------------------------------|
D|------------------x-----------2------------2------------------------|
A|-----x------------3-----------2------------3------------------------|
E|-----3--------------------------------------------------------------|

      Di mo maiisip…	        Di mo makikita…
e|-----3-------3----------------3--------3----------------------------|
B|-----3-------3----------------3--------3----------------------------|
G|--------------------------------------------------------------------|
D|-------------x-------------------------x----------------------------|
A|-----x-------3----------------x--------3----------------------------|
E|-----3------------------------3-------------------------------------|

    Mga pangarap ko oh…	Para sa’yo, para sa’yo oh..
e|-----3------------3-----------3----------------2----/3--------------|
B|-----3------------3-----------3----------------3--------------------|
G|-----------------------------------------------2--------------------|
D|------------------x-----------2-------------------------------------|
A|-----x------------3-----------2-------------------------------------|
E|-----3--------------------------------------------------------------|


CHORUS:

     Ohhhhhhhhhh…  Hindi ko maisip… kung wala ka…
e|------------2---------------2---------------------|
B|----1-------3---------------2---------------------|
G|----2-------4-------------------------------------|
D|----2-------4---------------2---------------------|
A|------------2---------------3---------------------|
E|------------2-------------------------------------|

     Ohhhhhhhhhh…  Sa buhay ko…
e|----3-------2------------2----------|
B|----3-------3------------2----------|
G|------------2-----------------------|
D|----2--------------------2----------|
A|----2--------------------3----------|
E|------------------------------------|

Verse 2:

    Nariyan ka pa ba…          hindi ko na matanaw…
e|-----3----------3--------------3------------3----------------------|
B|-----3----------3--------------3------------3----------------------|
G|-------------------------------------------------------------------|
D|----------------2---------------------------2----------------------|
A|-----2----------3--------------2------------3----------------------|
E|-----3-------------------------3-----------------------------------|

    Kung meron mang madaraanan…      Pasulong, pasulong…
e|-----3-----------------3-------------3--------2-----/3-------------|
B|-----3-----------------3-------------3--------3--------------------|
G|----------------------------------------------2--------------------|
D|-----------------------2-------------2-----------------------------|
A|-----2-----------------3-------------2-----------------------------|
E|-----3-------------------------------------------------------------|

Chorus…

Adlib:

Guitar 1 (pkinggan na lang ung strumming sa kanta! Gawin na lang to!)

e|---3------2-----3-----------3------2-----3-----2------------------|
B|---3------3-----3-----------3------3-----3-----3------------------|
G|----------2------------------------2-----------2------------------|
D|---2------------2-----------2------------2------------------------|
A|---2------------3-----------2------------3------------------------|
E|------------------------------------------------------------------|


Guitar 2 (w/ Effects) lead part (pkinggan nyo ung kanta para sa timing!)

e|----9/10-10--8-8--7-7--5-5--3-3-------3--------5/7-7—-5-5—-3-3----|
B|---------------------------------7-7-----3------------------------|
G|------------------------------------------------------------------|
D|------------------------------------------------------------------|
A|------------------------------------------------------------------|
E|------------------------------------------------------------------|

e|----9/10-10--8-8--7-7--5-5—5/7-7--5-5—7/9-9—------9/10------------|
B|------------------------------------------------------------------|
G|------------------------------------------------------------------|
D|------------------------------------------------------------------|
A|------------------------------------------------------------------|
E|------------------------------------------------------------------|

Bridge:

      Sundan mo…   Ang pag-ibig na lulan ng aking pinagtatanto…
e|--3--------3-----------3-----------3-----------------3--------------|
B|--3--------2-----------3-----------3-----------------3--------------|
G|-----------3--------------------------------------------------------|
D|--2--------------------2-----------------------------2--------------|
A|--3--------------------2-----------2-----------------3--------------|
E|-----------------------------------3--------------------------------|

      Sundan mo…   Ang pag-ibig ko…
e|--3--------3-----------3------2--------------|
B|--3--------2-----------3------3--------------|
G|-----------3------------------2--------------|
D|--2--------------------2---------------------|
A|--3--------------------2---------------------|
E|---------------------------------------------|


Chorus (ulit lang!)

LEGEND:

	X – palm mute
	/ - slide to

	     *Kung may comments, suggestions, revisions, etc. add nyo na lang ako sa
Gege! \m/
            
Submit corrections

comments powered by Disqus
↑ Back to top | Hale Tabs for Kung Wala Ka. Lyrics for acoustic guitar and electric guitar. 1 Tablatures and chords are parodies/interpretations of the original songs. You may use it for private study, scholarship, research or language learning purposes only