» » »

Kahit Pa Chords (ver.1)

Artists:  A B C D E F G H I J K L M N O P Q R S T U V W X Y Z # 

Kahit Pa Chords (ver.1)

Hale
Rating:
4/5 (10 votes)

Hard to play? Try these video lessons and learn fast.
                Em9 Records

comments?

Chords:
E   - 022100 or x79900   B5  - x244xx    
A2  - 002200             C#5 - x466xx
B2  - x24400             D5  - x577xx
C#m - x46650
F#m - 244222 or x44200

Intro: E - A2 (x2)

Bass Intro: (s = slide)
G|--------------------------------------|
D|--------------------------------------|
A|--7------7s6--7p6-----7---------------|
E|-----7s9------------7------55--5------|

Verse 1:
         E
Muling lalapit
      A2
Ang liwanag sa palagid
       E
At ang tinig
      A2
Na sa akin nagsasabing


Pre-chorus 1: ~(B2 slide to C#m)
  
B2 ~ C#m                   A2
     Hindi mapipigil ng mundo
B2 ~ C#m                  A2 - B2
     Papatunayan ang pangako


Chorus:
                E
Dahil kailangan ka
           B5     A2           B2   
Kailangang pakita natin tayo'y iba
         E
At kahit pa,
          B5          A2
Hindi papapigil sa mundo
       E          B5
At sa umagang darating
         C#5       D5 
Lahat ay aking kakayanin


Interlude: E - A2 (x2)


Verse 2:
             E
Huwag mong iisipin 
     A2
Ang mga harang sa atin
       E        A2
At ang ihip, ng hangin ay darating


Pre-chorus 2: ~(B2 slide to C#m)

B2 ~ C#m                       A2
     Bigla lang titigil ang mundo
B2 ~ C#m                  A2 - B5
     At ang lahat ay maglalaho


Chorus:
                E
Dahil kailangan ka
           B2     A2           B2   
Kailangang pakita natin tayo'y iba
         E
At kahit pa,
          B5          A2
Hindi papapigil sa mundo
       E          B5
At sa umagang darating
         C#5       D5 
Lahat ay aking kakayanin


Then:
         A2  F#m    A2
At kahit pa, ikaw lamang 
         F#m B2    A2  
At kahit pa, ikaw lamang
    B2
At ako


Solo: wah effect
Part 1:
e|---------12------------12---------------------------------|
B|--10/9-10----9--10/9-10-----9h10/12--12-14-12-------------|
G|----------------------------------------------------------|
D|----------------------------------------------------------|
A|----------------------------------------------------------|
E|----------------------------------------------------------|
Part 2:
e|---------12------------12-------------------------------------|
B|--10/9-10----9--10/9-10-----9h10/12--12-14-12-10-9-9/10p9-----|
G|----------------------------------------------------------9---|
D|--------------------------------------------------------------|
A|--------------------------------------------------------------|
E|--------------------------------------------------------------|


Bridge:
F#m        A2                 B2
  Hindi ko man hawak ang panahon
F#m          A2      B2
  Maging ang ikot ng buhay

        F#m     A2      B2         
Basta't ikaw at ikaw pa rin
F#m     A2   B5   - D5
Ikaw at ikaw parin


*Tapos ulit nalang yung chorus
 Then end with E
            
Hard to play? Try these video lessons and learn fast. | Correct




comments powered by Disqus
↑ Back to top | Tablatures and chords are parodies/interpretations of the original songs. You may use it for private study, scholarship, research or language learning purposes only