>
 >
Shooting Star

Shooting Star Guitar Tabs

Hale - Shooting Star chords, tabs, tablatures, lyrics

Guitar lessons | Add/correct | Request | Top 50 tabs Artists:  A B C D E F G H I J K L M N O P Q R S T U V W X Y Z 0-9

Shooting Star Guitar Tabs – Hale

CD, Sheet music, Poster

Do you like Shooting Star? Share with your friends now
ChordsChords v2Chords v3TabsUkulele



nice song by hale...\m/\m/


GUITAR TUNING : STANDARD


Verse:
                    D
Many times you've hurt me
                       F#m 
So many times you've fooled me
                        A
But you'll be doing it again
e|----------------------------------|
B|----------------------------------|
G|----------------------------------|
D|----------------------------------|
A|-----------------------------12*--|
E|-----------------------------12*--|

                      Bm
So many times we've spent in
                       F#m 
Too many lives we've been in
                      A
But you're doing it again
e|----------------------------------|
B|----------------------------------|
G|----------------------------------|
D|----------------------------------|
A|-----------------------------12*--|
E|-----------------------------12*--|


Refrain:
   G                     F#m	              Em           Bm
To me the nights have fallen	the lights are on and off again
e|-----------------------------------------------------------------------|
B|-----------------------------------------------------------------------|
G|--------------7-----------------------------7---------------7----------|
D|--9---9---9--------7---7---7-------------------5--5--5---------4--4--4-|
A|-----------------------------------------------------------------------|
E|-----------------------------------------------------------------------|
     A                 Bm                G
is there a chance that you wont die wont die
         F#
With me tonight?


Chorus:
D               DM7                G
Like a shooting star to where you are
            Gm
Are we too late am i too soon
D                DM7                     G
You'll make it through you've gone too far
               E       G
Will you ever be my star


Verse:
                   D		                    Bm
Im holding on to nothing	no reason worth for living
e|--------------------------------------------------------|
B|------------15/-5h7---------------------7h10p7-5h7------|
G|--------------------------------------------------------|
D|--------------------------------------------------------|
A|--------------------------------------------------------|
E|--------------------------------------------------------|

                     A
For im calling out to you
e|------------9h10p9h10p9------------5---|
B|---7h10p7------------------------------|
G|---------------------------6h7p6h7-----|
D|---------------------------------------|
A|---------------------------------------|
E|---------------------------------------|

                      Bm
If its the only way to keep you
e|------------------------------------|
B|---------------------5h7p5h7p5------|
G|------------------------------------|
D|------------------------------------|
A|------------------------------------|
E|------------------------------------|

                     F#m
Then i dont want to break you
e|------------------------------------|
B|------------------7h10p7h10p7-------|
G|------------------------------------|
D|------------------------------------|
A|------------------------------------|
E|------------------------------------|

                 A
Im losing grip again
e|---------------9h10p9h10p9-------9h10p9h10p9--------|
B|--------7h10p7-------------10----------------10-----|
G|----------------------------------------------------|
D|----------------------------------------------------|
A|----------------------------------------------------|
E|----------------------------------------------------|


Refrain:
     G                   F#m	               Em           Bm
With you the nights have fallen	the lights are on and off again
e|-----------------10---------------------10-----------------------------|
B|--12--12--12----------10--10--10------------8--8--8--8------7--7--7--7-|
G|-----------------------------------------------------------------------|
D|-----------------------------------------------------------------------|
A|-----------------------------------------------------------------------|
E|-----------------------------------------------------------------------|

     A                 Bm                G	     F#
is there a chance that you wont die wont die With me tonight?


Chorus: (strum the chords together with the power chordz...)
     D           DM7              G	            Gm
Like a shooting star to where you are	Are we too late am i too soon
e|-------------------------------------------------------------------|
B|-------------------------------------------------------------------|
G|---7-----------7----------------4----------------------------------|
D|---7-----------7----------------4-----------------5----------------|
A|---5-----------4----------------2-----------------5----------------|
E|--------------------------------------------------3----------------|

     D           DM7                    G	            E       G - B
You'll make it through you've gone too far   Will you ever be my star
e|------------------------------------------------------------------------|
B|------------------------------------------------------------------------|
G|---7-----------7------------------------------------------1-----------4-|
D|---7-----------7----------------------5-------------------2-------5---4-|
A|---5-----------4----------------------5-------------------2-------5---2-|
E|--------------------------------------3-------------------0-------3-----|

     E            EM7                A	               Am			
You're a shooting star to where you are	   are we too late am i too soon	
e|----------------------------------------------------------------------|
B|----------------------------------------------------------------------|
G|---9------------8------------------6-----------------5----------------|
D|---x------------x------------------x-----------------x----------------|
A|---7------------6------------------4-----------------3----------------|
E|----------------------------------------------------------------------|

     E            EM7                   A                       F#    A
You'll make it through you've gone too far       Will you ever be my star
e|------------------------------------------| |--------------------------|
B|------------------------------------------| |--------------------------|
G|---9------------8---------------------6---| |-----------------3-----6--|
D|---x------------x---------------------x---| |-----------------x-----x--|
A|---7------------6---------------------4---| |-----------------1-----4--|
E|------------------------------------------| |--------------------------|
					      ^				 ^
					      :--------repeat 2x---------:


Coda:(juzt strum...)
C#m             G#
Youre walking away
                A  G#m            F#m  E
I'll be seeing you through a satellite
C#m    A    F#m 
And if you go
                 E
Then im walking away




Key:

T   - Tap (Strings)
PM  - Palm Muting
/   - Slide Up
\   - Slide Down
h   - Hammer-on
p   - Pull-off
~   - Let the note ringing
s   - Strum softly
c   - Continue and Continuation
^   - Bend
*   - Harmonics





Comments


Popular Hale tabs & chords
Bulalakaw Chords
Day You Said Goodnight Chords
Day You Said Goodnight 3 Chords
Day You Said Goodnight 6 Chords
Skip The Drama Chords
Starting Over Chords
Waltz 1 Chords
Bahay Kubo Ukulele
Bulalakaw Ukulele
Treehouse Ukulele


Song lyrics



↑ Back to top | Tablatures and chords are parodies/interpretations of the original songs. You may use it for private study, scholarship, research or language learning purposes only
© 2014 AZChords.com Contact us | Privacy policy | DMCA | Add/correct tabs | Request tabs | Top 50 tabs