» » »

Life Support Tabs (ver.1)

Artists:  A B C D E F G H I J K L M N O P Q R S T U V W X Y Z # 

Life Support Tabs (ver.1)

Hale
Rating:
0/5 (0 votes)

Hard to play? Try these video lessons and learn fast.
                Song Title   :  Life Support
Band/Artist  :  Hale

This goes out to all my friends @ Saint Louis University

Tuning: EADGBe (standard)

intro:
e|---------------------------------------------|
B|-----4-4-4-----4-4-4-----5-5-5-----5-5-5-----|
G|---------------------------------------------|
D|---------------------------------------------|
A|------------0--------------------------------|
E|--0-------------------0---------4------------|

sabayan nyo po ung intro ng ganito:
       E       Asus2
e|-----0---------0----------|
B|-----0---------0----------|
G|-----1-strum---2-strum----|
D|-----2---------2----------|
A|-----2---------0----------|
E|-----0---------x------=---|

++++++++++++++++++++++++++++++++++++++++++++++++++++++++++++++++++++++++++++
Verse1
       E       Asus2
e|-----0---------0----------|
B|-----0---------0----------|
G|-----1-strum---2-strum----|
D|-----2---------2----------|
A|-----2---------0----------|
E|-----0---------x----------|
Sourcastic smiles and fake hellos       
we try to hide but always leave an open door behind
to escape from reality

refrain:
    E         A        C#m        B
e|-------------------------------------------|
B|-------------------------------------------|
G|--9-strum---6-strum---6-strum---4-strum----|
D|--9---------7---------6---------4----------|
A|--7---------7---------4---------2----------|
E|------------5------------------------------|
why are you crying
why are you crying

chorus:
e|--------------------------|
B|--------------------------|
G|-----9-strum---6-strum----|
D|-----9---------7----------|
A|-----7---------7----------|
E|---------------5----------|
oooooohhh

just repeat the cycle for the remaining part of the song
++++++++++++++++++++++++++++++++++++++++++++++++++++++++++++++++++++++++++++

Feel free to send me an email or SMS.
            
Hard to play? Try these video lessons and learn fast. | Correct




comments powered by Disqus
↑ Back to top | Tablatures and chords are parodies/interpretations of the original songs. You may use it for private study, scholarship, research or language learning purposes only