>
 >
Broken Sonnet

Broken Sonnet Guitar Tabs

Hale - Broken Sonnet chords, tabs, tablatures, lyrics

Guitar lessons | Add/correct | Request | Top 50 tabs Artists:  A B C D E F G H I J K L M N O P Q R S T U V W X Y Z 0-9

Broken Sonnet Guitar Tabs – Hale

CD, Sheet music, Poster

Do you like Broken Sonnet? Share with your friends now
Bass TabsChordsChords v2TabsTabs v2Tabs v3Tabs v4Tabs v5Tabs v6Tabs v7Tabs v8Tabs v9Ukulele
--------------------------------------------------------------------
if you don't like this song, screw you :)) OPM!!! if it's
wrong, give me a break, i'm 14. lol. the riffs are there na..
it's for sure not 100% accurate but it's close enough.. i think.
*THEY HAVE A GIG daw WITH MAYONNAISE IN SAGUIJO BAR ON APRIL 14,'05
--------------------------------------------------------------------

Standard Tuning: EADGBE

Intro
Em-G-D-C9
e|-----------------------------------------------------------------0--|
B|-----------------------------------------------------------------0--|
G|-----0-------0-------0-------0-------0-------0-------0-------0---0--|
D|--2-----2-2-----4-5-----5-5-----4-0-----0-0---------0-0-----0-0--2--|
A|----5-5-----5-------5-5-----5-------5-5-----5---2-3-----3-3------2--|
E|-----------------------------------------------------------------0--|

Verse
Em-G-D-C9
Em-G-D-C9
Em-G-D-C9
Em-G-D-C9
e|-----------------------------------------------------------------|
B|-----------------------------------------------------------------|
G|-----0-------0-------0-------0-------0-------0-------0-------0---| 4x
D|--2-----2-2-----4-5-----5-5-----4-0-----0-0---------0-0-----0-0--|
A|----5-5-----5-------5-5-----5-------5-5-----5---2-3-----3-3------|
E|-----------------------------------------------------------------|

Pre-Chorus
A-Bm-C9
Em-D-C9
e|--------------------------------------------------|
B|--------------------------------------------------|
G|-----0-----0-----0-----0-----0-----0-----0-----0--|
D|----0-----0-----0-----0-----0-----0-----0-----0---|
A|--0-----0-----2-----2-----3-----3-----3-----3-----|
E|--------------------------------------------------|

e|--------------------------------------------------|
B|--------------------------------------------------|
G|-----0--7--0-----0-----0-----0-----0-----0-----0--|
D|----0-----------0-----0-----0-----0-----0-----0---|
A|--7-----------5-----5-----3-----3-----3-----3-----|
E|--------------------------------------------------|

Chorus
Em-D-C9
Em-D-C9
e|--------------------------------------------------|
B|--------------------------------------------------|
G|-----7/9--7--7/9--555555--5/7-----7/9--7--7/9--5--|
D|--2--7/9--7--7/9--555555--5/7--2--7/9--7--7/9--5--|
A|--2--5/7--5--5/7--333333--3/5--2--5/7--5--5/7--3--|
E|--0----------------------------0------------------|

Intro
Em-G-D-C9
e|-----------------------------------------------------------------|
B|-----------------------------------------------------------------|
G|-----0-------0-------0-------0-------0-------0-------0-------0---|
D|--2-----2-2-----4-5-----5-5-----4-0-----0-0---------0-0-----0-0--|
A|----5-5-----5-------5-5-----5-------5-5-----5---2-3-----3-3------|
E|-----------------------------------------------------------------|

Verse
D-C9-D-C9
Em-G-D-C9
Em-G-D-C9
Em-G-D-C9
e|-----------------------------------------------------------------|
B|-----------------------------------------------------------------|
G|-----0-------0-------0-------0-------0-------0-------0-------0---| 3x
D|--2-----2-2-----4-5-----5-5-----4-0-----0-0---------0-0-----0-0--|
A|----5-5-----5-------5-5-----5-------5-5-----5---2-3-----3-3------|
E|-----------------------------------------------------------------|

Pre-Chorus
A-Bm-C9
Em-D-C9
harmonics                  if you don't like harmonics.. hmm.
e|-------------------|     e|--3-2-2-3---2-3----|
B|----7-7-----7------|     B|----------3-----3--|
G|--5-----5-7---5-7--|     G|-------------------|
D|-------------------|     D|-------------------|
A|-------------------|     A|-------------------|
E|-------------------|     E|-------------------|

e|---------------------------------|
B|---------------------------------|
G|----7-7----7-7----7-7----7-7--5--|
D|---7------7------7------7-----5--|
A|--7------7------5------5------3--|
E|---------------------------------|

Chorus
Em-D-C9
Em-D-C9
e|--------------------------------------------------|
B|--------------------------------------------------|
G|-----7/9--7--7/9--555555--5/7-----7/9--7--7/9--5--|
D|--2--7/9--7--7/9--555555--5/7--2--7/9--7--7/9--5--|
A|--2--5/7--5--5/7--333333--3/5--2--5/7--5--5/7--3--|
E|--0----------------------------0------------------|

Bridge
G-D-Em-C9
Em-D-C9

Ad-Lib
Em-D-C9
Em-D-C9

Chorus
Em-D-C9
Em-D-C9
e|--------------------------------------------------|------------|
B|--------------------------------------------------|------------|
G|-----7/9--7--7/9--555555--5/7-----7/9--7--7/9--5--|--5-5-5--7--|
D|--2--7/9--7--7/9--555555--5/7--2--7/9--7--7/9--5--|--5-5-5--7--|
A|--2--5/7--5--5/7--333333--3/5--2--5/7--5--5/7--3--|--3-3-3--5--|
E|--0----------------------------0------------------|------------|

Bridge
G-D-Em-C9
Em-D-C9
e|----------------------------------|---------|
B|----------------------------------|---------|
G|-------777--999--12-11------------|---------|
D|--555--777--999--12-12--9/10--10--|--10/12--|
A|--555--555--777--10-10--9/10--10--|--10/12--|
E|--333-------000---------7/8---8---|--8-/10--|

e|----------------------------------|
B|----------------------------------|
G|--999--12-11--777--12-11--101010--|
D|--999--12-12--777--12-12--101010--|
A|--777--10-10--555--10-10--8-8-8---|
E|--000-----------------------------|

Ad-Lib
G-D-Em-C9

Outro (plucked)
Em-G-D-C9
A-Bm-C9-D-Em-F#m-G (Bass)
e|--------------------------------------------------------------------|
B|--------------------------------------------------------------------|
G|-----0-0-----0-0-----0-0-----0-0-----0-0-----0-0-------0-0-----0-0--|
D|----0-0-----0-0-----0-0-----0-0-----0-0-----0-0-------0-0-----0-0---|
A|--7-------7-------10------10------5-------5-------------------------|
E|--------------------------------------------------7-8-------8-------|

e|-----------------------------------------------|
B|-----------------------------------------------|
G|-----0------0------0------0------0------0------|
D|----0--0---0--0---0--0---0--0---0--0---0--0----|
A|--0------2------3------5-----------------------|
E|------------------------------0------2------3--|
End


Chords (Key of G)      Power Chords
Em : 022000 or 022033  022XXX
G  : 320033            355XXX
D  : 2X0232            X577XX
C9 : X32033            X355XX
A  : X02033            577XXX or X022XX
Bm : X20033            X244XX





Comments


Popular Hale tabs & chords
Fire In The Sky Chords
Leap Of Faith Chords
Blue Sky Tabs
Kahit Pa Tabs
Life Support 2 Tabs
The Day You Said Goodnight Tabs
Underneath The Waves Tabs
One Moment Ukulele
This Is A Happy Song Ukulele
Waltz Ukulele


Song lyrics



↑ Back to top | Tablatures and chords are parodies/interpretations of the original songs. You may use it for private study, scholarship, research or language learning purposes only
© 2014 AZChords.com Contact us | Privacy policy | DMCA | Add/correct tabs | Request tabs | Top 50 tabs