» » »

Hale, Broken Sonnet Tabs (ver.3)

Artists:  A B C D E F G H I J K L M N O P Q R S T U V W X Y Z # 

Broken Sonnet Tabs (ver.3)

Hale Tabs
Rating:
2/5 (1 vote)
Hard to play? Try these video lessons and learn fast.
                broken sonnet by hale
(im terribly sorry for my previous tab of this song, its wrong!! hahaha)
yahoo messenger - jco_lead

INTRO / VERSE
Em-G-D-C
---------------------------------------------------------------------|
---------------------------------------------------------------------|
---------0--------------------0----------------0---------------------|
-2---0-------0-------2---0--------4---5----------5--------5----------|
------------------2--------------------------5--------5---------5----|
--------------------------------------3-------------------3----------|

---------------------------------------------------------------------------|
---------------------------------------------------------------------------|
0----------------0--------------------------------0---------------0--------|
---4--------0--------0-------0-----------------0-----0---------0-----0-----|
--------5------------------5-------3---2---3---------------3-3-------------|
---------------------------------------------------------------------------|

(or you could just do the easy INTRO/VERSE like this:)

---------------------------------------------------------------------------|
---------------------------------------------------------------------------|
------------0------------------0-----------------0--------------------0----|
--------0------0----------0------------------0-----0-------------0---------|
----7--------------7-7-------------9--10----------------10-10--------------|
---------------------------------------------------------------------------|

--------------------------------------------------------------------------|
--------------------------------------------------------------------------|
-----------------0--------------------------------0----------------0------|
--------------0-----0-------------------------0------0--------0-------0---|
----9----5--------------5-5----3---2---3-----------------3-3--------------|
--------------------------------------------------------------------------|

PRE-CHORUS
Am-B-C
Em-D-C
--------------------------------------------------------------------------|
--------------------------------------------------------------------------|
--------0---0-------0---0-------0---0------0---0------0---0------0---0----|
------0---0-------0---0-------0---0------0---0------0---0------0---0------|
---------------------------2----------2----------3----------3-------------|
---5------------5---------------------------------------------------------|

-----------------------------------------------------------------------------|
-----------------------------------------------------------------------------|
------0--0------0---0--------0---0-----0---0-----0---0----0---0-----0--0-----|
----0--0------0---0--------0---0-----0---0-----0---0-----0--0----0--0--------|
--3---------3-----------7----------7---------5--------5--------3-------------|
-----------------------------------------------------------------------------|

---------------------------------------------------------------------------|
---------------------------------------------------------------------------|
----0-0---0-0---0-0--------------------------------------------------------|
---0-0---0-0---0-0---------------------------------------------------------|
--3-----3-----3------------------------------------------------------------|
---------------------------------------------------------------------------|

harmonics
b- between
-----------------------------------------------------------------------|
----------------7b8--7b8---------------------7b8-----------------------|
--------5b6----------------5b6---7b8---5b6----------5b6---7b8----------|
-----------------------------------------------------------------------|
-----------------------------------------------------------------------|
-----------------------------------------------------------------------|

CHORUS
Em-D-C
s-slide
------------------------------------------------------------------|
------------------------------------------------------------------|
------------------------------------------------------------------|
--------7s9---7---7s9-----5---5s7---------------------------------|
----2---5s7---5---5s7-----3---3s5---------------------------------|
----0-------------------------------------------------------------|

BRIDGE
Em-D-Em-C
Em-D-C
--------------------------------|
--------------------------------|
--------------------------------|
--9---7-------5---9---7---5-----|
--7---5---2---3---7---5---3-----|
---------0----------------------|

SOLO
s-slide
/-bend
h-hammer on
--------------------------------------------------5-7-8---10-10--------|
-----------8----------7h8--------------5-7-8---------------------------|
-----------------7------------5----5-7---------------------------------|
-----------------------------------------------------------------------|
---5s7-----------------------------------------------------------------|
-----------------------------------------------------------------------|

-10s12-12-12-12---15----10--10-8-7-----------------|
---------------------------------------------------|
---------------------------------------------------|
---------------------------------------------------|
---------------------------------------------------|
---------------------------------------------------|

--15--15--15--15/17-17b--15---------------------------|
--13--13--13--13--------------------------------------|
------------------------------------------------------|
------------------------------------------------------|
------------------------------------------------------|
------------------------------------------------------|
OUTRO
------------------------------------------------------------------|
------------------------------------------------------------------|
------------------------------------------------------------------|
---9-----7-----9-----12--11--4--5-----9----7----5-----------------|
---7-----5-----7-----10---9--2--3-----7----5----3-----------------|
------------------------------------------------------------------|

SOLO ENDING
s - slide
------------------------------------------------------------------10---------|
---8-8----7h8---8b--7---3-3----7-7-7s8--8---8---7s8--------------------------|
---7-7-----------------------------------------------------------------------|
-----------------------------------------------------------------------------|
-----------------------------------------------------------------------------|
-----------------------------------------------------------------------------|

LAST PLUCKING OUTRO!?
---------------------------------------------------------------|
---------------------------------------------------------------|
----0-0---0-0---0-0---0-0---0-0----0------0-0---0-0----0-0-----|
---0-0---0-0---0-0---0-0---0-0----0------0-0---0-0----0-0------|
--3-----3----5-----5-----7-----7----2-3-----3------0-----------|
---------------------------------------------------------------|

--------------------------------------------------------------|
--------------------------------------------------------------|
----0-0---0-0---0-0----0-0---0-0----0-0-----------------------|
---0-0---0-0---0-0----0-0---0-0----0-0------------------------|
--2-----3-----5-----7-----9-----11------12--------------------|
--------------------------------------------------------------|
            

comments powered by Disqus
↑ Back to top | Hale Tabs for Broken Sonnet. Lyrics for acoustic guitar and electric guitar. Tablatures and chords are parodies/interpretations of the original songs. You may use it for private study, scholarship, research or language learning purposes only