» » »

Hale, Bent Down Tabs (ver.3)

Artists:  A B C D E F G H I J K L M N O P Q R S T U V W X Y Z # 

Bent Down Tabs (ver.3)

Hale Tabs
 Rating:
4/5 (5 votes)
Bent Down lessons Tabs too difficult? Try these video lessons and learn fast
                Bent Down - Hale
Standard Tuning: EADGBe

Intro:

e|-----0-----0-----0------------0-----0-----0--------|
B|--9-9---9-9---9-9---9--7---9-9---9-9---9-9---9--7--|
G|---------------------------------------------------|
D|---------------------------------------------------|
A|--7----12----11------------7----12----11-----------|
E|--------------------9--7---------------------9--7--|

Verse 1:

e|-----0-----0-----0-----0-----0-----0-----0-----0--|
B|--9-9---9-9---9-9---9-9---9-9---7-7---0-0---0-0---|
G|--------------------------------------------------|
D|--------------------------------------------------|
A|--7-----7----12----12-----------------------------|
E|--------------------------9-----7-----5-----5-----|

My conscience is hurting my ear
But I'm happy as long as you are

e|-----0-----0-----0-----0-----0-----0-----0-----0--|
B|--9-9---7-7---0-0---0-0---9-9---7-7---0-0---0-0---|
G|--------------------------------------------------|
D|--------------------------------------------------|
A|--------------------------------------------------|
E|--9-----7-----5-----5-----9-----7-----5-----5-----|

I hide if I can, I don't care where I stand

e|-----0-----0-----0-----0--|
B|--2-2---4-4---5-5---7-7---|
G|--------------------------|
D|--------------------------|
A|--------------------------|
E|--2-----4-----5-----7-----|

As long as you are bent down


Then repeat Intro...

e|-----0-----0-----0------------0-----0-----0--------|
B|--9-9---9-9---9-9---9--7---9-9---9-9---9-9---9--7--|
G|---------------------------------------------------|
D|---------------------------------------------------|
A|--7----12----11------------7----12----11-----------|
E|--------------------9--7---------------------9--7--|

Verse 2:

e|-----0-----0-----0-----0-----0-----0-----0-----0--|
B|--9-9---9-9---9-9---9-9---9-9---7-7---0-0---0-0---|
G|--------------------------------------------------|
D|--------------------------------------------------|
A|--7-----7----12----12-----------------------------|
E|--------------------------9-----7-----5-----5-----|

You never said what does it mean
I'm speaking the same words again

e|-----0-----0-----0-----0-----0-----0-----0-----0--|
B|--9-9---7-7---0-0---0-0---9-9---7-7---0-0---0-0---|
G|--------------------------------------------------|
D|--------------------------------------------------|
A|--------------------------------------------------|
E|--9-----7-----5-----5-----9-----7-----5-----5-----|

But I will if you have to fall
I'm here if you want me at all

e|-----0-----0-----0-----0--|
B|--2-2---4-4---5-5---7-7---|
G|--------------------------|
D|--------------------------|
A|--------------------------|
E|--2-----4-----5-----7-----|

Just as long as you are bent down


Then repeat Intro...

e|-----0-----0-----0------------0-----0-----0--------|
B|--9-9---9-9---9-9---9--7---9-9---9-9---9-9---9--7--|
G|---------------------------------------------------|
D|---------------------------------------------------|
A|--7----12----11------------7----12----11-----------|
E|--------------------9--7---------------------9--7--|

Chorus:

e|-----0-----0-----0-----0-----0-----0-----0-----0--|
B|--9-9---9-9---9-9---9-9---0-0---0-0---2-2---4-4---|
G|--------------------------------------------------| 2x
D|--------------------------------------------------|
A|--------------------------------------2-----2-----|
E|--9----9-----8-----8-----2-----2------------------|

She feels
I'm laid out for everything here
She keeps
Me away from this song of mine


Then repeat Intro...

e|-----0-----0-----0------------0-----0-----0--------|
B|--9-9---9-9---9-9---9--7---9-9---9-9---9-9---9--7--|
G|---------------------------------------------------|
D|---------------------------------------------------|
A|--7----12----11------------7----12----11-----------|
E|--------------------9--7---------------------9--7--|

Verse 3:

e|-----0-----0-----0-----0-----0-----0-----0-----0--|
B|--9-9---9-9---9-9---9-9---9-9---7-7---0-0---0-0---|
G|--------------------------------------------------|
D|--------------------------------------------------|
A|--7-----7----12----12-----------------------------|
E|--------------------------9-----7-----5-----5-----|

I don't know why this won't stop
'Cause maybe it just won't stop

e|-----0-----0-----0-----0-----0-----0-----0-----0--|
B|--9-9---7-7---0-0---0-0---9-9---7-7---0-0---0-0---|
G|--------------------------------------------------|
D|--------------------------------------------------|
A|--------------------------------------------------|
E|--9-----7-----5-----5-----9-----7-----5-----5-----|

But will if I hear you call
Though maybe you don't care at all

e|-----0-----0-----0-----0--|
B|--2-2---4-4---5-5---7-7---|
G|--------------------------|
D|--------------------------|
A|--------------------------|
E|--2-----4-----5-----7-----|

But at least you're the one bent down


Then repeat Intro...

e|-----0-----0-----0------------0-----0-----0--------|
B|--9-9---9-9---9-9---9--7---9-9---9-9---9-9---9--7--|
G|---------------------------------------------------|
D|---------------------------------------------------|
A|--7----12----11------------7----12----11-----------|
E|--------------------9--7---------------------9--7--|

Chorus:

e|-----0-----0-----0-----0-----0-----0-----0-----0--|
B|--9-9---9-9---9-9---9-9---0-0---0-0---2-2---4-4---|
G|--------------------------------------------------| 2x
D|--------------------------------------------------|
A|--------------------------------------2-----2-----|
E|--9----9-----8-----8-----2-----2------------------|

She feels
I'm laid out for everything here
She keeps
Me away from this song of mine

Verse 4:

e|-----0-----0-----0-----0-----0-----0-----0-----0--|
B|--9-9---9-9---9-9---9-9---9-9---7-7---0-0---0-0---|
G|--------------------------------------------------|
D|--------------------------------------------------|
A|--7-----7----12----12-----------------------------|
E|--------------------------9-----7-----5-----5-----|

You could be here
Oh you could be here

e|-----0-----0-----0-----0-----0-----0-----0-----0--|
B|--9-9---7-7---0-0---0-0---9-9---7-7---0-0---0-0---|
G|--------------------------------------------------|
D|--------------------------------------------------|
A|--------------------------------------------------|
E|--9-----7-----5-----5-----9-----7-----5-----5-----|

As close as I can hold together as we're told

e|-----0-----0-----0-----0--|
B|--2-2---4-4---5-5---7-7---|
G|--------------------------|
D|--------------------------|
A|--------------------------|
E|--2-----4-----5-----7-----|

For we were the ones bent down

Outro:

e|-----0-----0-----0------------0------0-----0----9--11--12--|
B|--9-9---9-9---9-9---9--7---9-9--10-10----12-12---------12--|
G|-------------------------------------------------------9---|
D|-----------------------------------------------------------|
A|--7----12----11------------7-------------------------------|
E|--------------------9--7--------10-------12-----9--11------|

- END -
Thanks! Enjoy! Please rate! ^^,
            
Submit corrections

comments powered by Disqus
↑ Back to top | Hale Tabs for Bent Down. Lyrics for acoustic guitar and electric guitar. Tablatures and chords are parodies/interpretations of the original songs. You may use it for private study, scholarship, research or language learning purposes only