>
 >
Bent Down 1

Bent Down 1 Guitar Tabs

Hale - Bent Down 1 chords, tabs, tablatures, lyrics

Guitar lessons | Add/correct | Request | Top 50 tabs Artists:  A B C D E F G H I J K L M N O P Q R S T U V W X Y Z 0-9

Bent Down 1 Guitar Tabs – Hale

CD, Sheet music, Poster

Do you like Bent Down 1? Share with your friends now
ChordsTabsTabs v2Tabs v3Tabs v4Ukulele
===========================================================================
                             BENT DOWN - Hale
                     (From Hale Self Titled Album)
===========================================================================
                      
Requested by: Benjie de Arce

Isabay ng paulit-ulit sa orihinal na kanta ang bawat bar para malaman ang 
tamang kalabit at tamang tempo. Kabisaduhin munang mabuti ang unang bar 
bago isunod ang iba pa.Siguraduhing naka-standard ang tono ng gitara para 
akma ang tunog kapag nilagyan na ng CAPO at isinabay na sa cd or tape.

Hindi lahat ng nakalagay dito ay tama. Maaari ring mali ang pagkakarinig at
pagkakalapat dito ng gumawa. Ito ay tulong lang at karagdagang kaalaman la-
mang para sa inyo. Maraming salamat po.
 

Tuning: Standard (with CAPO on the 2nd fret)


[A]INTRO:
 
    Dmajor            D/G               D/F#              Bm7      Asus4
e||--2-----2--------|--2-----2--------|--2-----2--------|--2--------0------|
B||-----------3-----|-----------3-----|-----------3-----|------------------|
G||-----2--------2--|-----2--------2--|-----2--------2--|-----2--------2---|
D||-----------------|--5--------------|--4--------------|------------------|
A||--5--------------|-----------------|-----------------|--2--------0------|
E||-----------------|-----------------|-----------------|------------------|

                                                                    1.My --
                                                                    2.You'll
                                                                    3.-----
                                                                    4.-----

    Dmajor            D/G               D/F#              Bm7      Asus4
e|---2-----2--------|--2-----2--------|--2-----2--------|--2--------0-----||
B|------------3-----|-----------3-----|-----------3-----|-----------------||
G|------2--------2--|-----2--------2--|-----2--------2--|-----2--------2--||
D|------------------|--5--------------|--4--------------|-----------------||
A|---5--------------|-----------------|-----------------|--2--------0-----||
E|------------------|-----------------|-----------------|-----------------||


============================================================================

[B]STANZA:

---cons-cience --is --hur---ting --my --ear,                        But I'm
---ne-----ver --said -what does ---it -mean,                            I'm
--I don't know -why --this -won't stop,                                 Coz'
----You -------------------could -be ---here,                           Or-
 
   Dmajor            Dmajor            D/G               D/G
e||--2-----2--------|--2-----2--------|--2-----2--------|--2-----2---------|
B||-----------3-----|-----------3-----|-----------3-----|-----------3------|
G||-----2--------2--|-----2--------2--|-----2--------2--|-----2--------2---|
D||-----------------|-----------------|--5--------------|--5---------------|
A||--5--------------|--5--------------|-----------------|------------------|
E||-----------------|-----------------|-----------------|------------------|


----ha----ppy ---as -long --as ---you -are,                           ------
----spea--king --the same -words again,                               But I
----may---be ----it -just -won't stop,                                But it
----you --------------------can --be --here,                          As ---
 
    Bm7              Asus4             Gsus2             Gsus2
e|---2-----2--------|--0-----0--------|-----------------|------------------|
B|------------3-----|-----------3-----|-----------3-----|-----------3------|
G|-----(2)-------2--|----(2)------(2)-|--2-----2--------|--2-----2---------|
D|------------------|-----------------|----(0)------(0)-|----(0)------(0)--|
A|---2--------------|--0--------------|-----------------|------------------|
E|------------------|-----------------|--3--------------|--3---------------|
  ( )-Mahina lang ang kalabit o kung minsan halos hindi na kinakalabit
      ngunit kasama pa rin sa tempo.

-I hide ---------if ---------I ---------can,                          ------
---will ---if --you --have -to ---fall,                               ------
---will ---if ---I ---hear -you --call,                               But --
---close --as ---I ---------can --hold,                               To----
 
    Bm7              Asus4             Gsus2             Gsus2
e|---2-----2--------|--0-----0--------|-----------------|------------------|
B|------------3-----|-----------3-----|-----------3-----|-----------3------|
G|-----(2)-------2--|----(2)------(2)-|--2-----2--------|--2-----2---------|
D|------------------|-----------------|----(0)------(0)-|----(0)------(0)--|
A|---2--------------|--0--------------|-----------------|------------------|
E|------------------|-----------------|--3--------------|--3---------------|


-I don't care --where -------I --stand,                               As ---
I'm here -if ---you -want ---me at all,                              Just as
----may---be ---you -don't care at all,                               But at
----ge----ther -as --------were --told,                               But --
 
    Bm7              Asus4             Gsus2             Gsus2
e|---2-----2--------|--0-----0--------|-----------------|------------------|
B|------------3-----|-----------3-----|-----------3-----|-----------3------|
G|-----(2)-------2--|----(2)------(2)-|--2-----2--------|--2-----2---------|
D|------------------|-----------------|----(0)------(0)-|----(0)------(0)--|
A|---2--------------|--0--------------|-----------------|------------------|
E|------------------|-----------------|--3--------------|--3---------------|

                                                               
---long --------------as ---you --------are -------------bent ----------down.
---long --------------as ---you --------are -------------bent ----------down.
---least, ----------you're -the --one -------------------bent ----------down.
----we --------------were --the --ones ------------------bent ----------down.

    Em7               F#m              Gmajor             Asus4
e|------------------|-----------------|-----------------|--------0--------||
B|---0-----0--3-----|--2-----2--3-----|--3--------3-----|--5--------3-----||
G|------------------|-----------------|--------7--------|----(0)------(0)-||
D|-----(0)------(0)-|----(0)------(0)-|----(5)------(5)-|-----------------||
A|------------------|-----------------|-----------------|--0--------------||
E|---0--------------|--2--------------|--3--------------|-----------------||


REPEAT INTRO:
2ND STANZA: (Pangalawang linya)
REPEAT INTRO:


============================================================================

[C]REFRAIN:

    She -------------------------------feels,                         I'm --
 
    Bm7               Bm7               D/Bb              D/Bb
e||--2-----2--------|--2-----2--------|--2-----2--------|--2-----2---------|
B||-----------3-----|-----------3-----|-----------3-----|-----------3------|
G||----(2)-------2--|----(2)-------2--|----(2)-------2--|----(2)-------2---|
D||-----------------|-----------------|-----------------|------------------|
A||--2--------------|--2--------------|--1--------------|--1---------------|
E||-----------------|-----------------|-----------------|------------------|



---laid --out --for ---e---verything ---here
 
   Asus4/E           Asus4/E           Asus4            Asus4
e|------------------|-----------------|-----------------|------------------|
B|------------3-----|-----------3-----|--0-----0--3-----|--2-----2--3------|
G|---2-----2--------|--2-----2--------|-----------------|------------------|
D|-----(0)------(0)-|----(0)------(0)-|----(0)------(0)-|----(0)------(0)--|
A|------------------|-----------------|--0--------------|--0---------------|
E|---0--------------|--0--------------|-----------------|------------------|



    She --------------------------keeps,                         me ---a----
 
    Bm7               Bm7               D/Bb              D/Bb
e|---2-----2--------|--2-----2--------|--2-----2--------|--2-----2---------|
B|------------3-----|-----------3-----|-----------3-----|-----------3------|
G|-----(2)-------2--|----(2)-------2--|----(2)-------2--|----(2)-------2---|
D|------------------|-----------------|-----------------|------------------|
A|---2--------------|--2--------------|--1--------------|--1---------------|
E|------------------|-----------------|-----------------|------------------|



----way --from -this -song --of ---mine.
 
   Asus4/E           Asus4/E           Asus4            Asus4
e|------------------|-----------------|-----------------|-----------------||
B|------------3-----|-----------3-----|--0-----0--3-----|--2-----2--3-----||
G|---2-----2--------|--2-----2--------|-----------------|-----------------||
D|-----(0)------(0)-|----(0)------(0)-|----(0)------(0)-|----(0)------(0)-||
A|------------------|-----------------|--0--------------|--0--------------||
E|---0--------------|--0--------------|-----------------|-----------------||


REPEAT INTRO:
3RD STANZA: (Pangatlong linya)
REPEAT REFRAIN:
4TH STANZA: (Pang-apat na linya)

============================================================================

[D]CODA:
 
    Dmajor            D/G               D/F#              Bm7      Asus4
e||--2-----2--------|--2-----2--------|--2-----2--------|--2--------0------|
B||-----------3-----|-----------3-----|-----------3-----|------------------|
G||-----2--------2--|-----2--------2--|-----2--------2--|-----2--------2---|
D||-----------------|--5--------------|--4--------------|------------------|
A||--5--------------|-----------------|-----------------|--2--------0------|
E||-----------------|-----------------|-----------------|------------------|


     D               D7sus             Gsus2               A9
e|---2-----2--------|--3-----3--------|--5--------5-----|--7---------------|
B|------------3-----|-----------3-----|--------3--------|------------------|
G|------2--------2--|-----2--------2--|-----2--------2--|------------------|
D|---0--------------|-----------------|-----------------|------------------|
A|------------------|--3--------------|-----------------|--0---------------|
E|------------------|-----------------|--3--------------|------------------|


     A               Dmajor             
e|---9--------------|->10------------||
B|------------------|->7-------------||
G|------------------|->7-------------||
D|---7--------------|->7-------------||
A|------------------|----------------||
E|------------------|----------------||


============================================================================

For comments, suggestions or any questions regarding this tablature.





Comments


Popular Hale tabs & chords
Hagatna Bay 1 Chords
Bent Down 3 Tabs
Day You Said Goodnight 4 Tabs
Day You Said Goodnight 5 Tabs
Kung Wala Ka Tabs
Wishing Tabs
Here Tonight Ukulele
Sandali Na Lang Ukulele
The End Ukulele
This Is A Happy Song Ukulele


Song lyrics



↑ Back to top | Tablatures and chords are parodies/interpretations of the original songs. You may use it for private study, scholarship, research or language learning purposes only
© 2014 AZChords.com Contact us | Privacy policy | DMCA | Add/correct tabs | Request tabs | Top 50 tabs