» » »

Green Day, You Lied Tabs (ver.2)

Artists:  A B C D E F G H I J K L M N O P Q R S T U V W X Y Z # 

You Lied Tabs (ver.2)

Green Day Tabs
Rating:
0/5 (0 votes)
You Lied lessons Tabs too difficult? Try these video lessons and learn fast
                Daniel Rowley
Green Day
You Lied
Tune 1 fret down!

Verse:     
      X4          X4
|------------------------------|
|------------------------------|
|------------------------------|
|-6/7-7-7-7---3/4-4-4-4--------|
|-4/7-7-7-7---3/4-4-4-4--------|
|-4/5-5-5-5---1/2-2-2-2--------|

Chorus:
X4
|---9------7---------------------|
|-9---9------7-------------------|
|-9------7-----------------------|
|-9------7-----------------------|
|-7------5-----------------------|
|--------------------------------|

Solo:

|-----------------5------------|
|----2-5-2-----2-5-------------|
|1/2-------1/2----------3-6-3--|
|-------------------3/4--------|
|------------------------------|
|------------------------------|

Ending Riff:
|---------------------------------|
|-7-5-2-7-5-2-5-7-5-2-7-5-2-2-2---|
|---------------------------------|
|-------------------------------4-|
|-------------------------------4-|
|-------------------------------2-|
            

comments powered by Disqus
↑ Back to top | Green Day Tabs for You Lied. Lyrics for acoustic guitar and electric guitar. Tablatures and chords are parodies/interpretations of the original songs. You may use it for private study, scholarship, research or language learning purposes only