» » »

Green Day, You Lied Tabs (ver.1)

Artists:  A B C D E F G H I J K L M N O P Q R S T U V W X Y Z # 

You Lied Tabs (ver.1)

Green Day Tabs
Rating:
0/5 (0 votes)
Hard to play? Try these video lessons and learn fast.
                
Intro
eb|-----------------------------------------------------------------|
Bb|-----------------------------------------------------------------|
Gb|-----------------------------------------------------------------|
Db|-6/7--7--7--7--7--7--7--7----------------------------------------|
Ab|-6/7--7--7--7--7--7--7--7----------------------------------------|
Eb|-4/5--5--5--5--5--5--5--5----------------------------------------|

Verse (x2)
eb|-----------------------------------------------------------------------------|
Bb|-----------------------------------------------------------------------------|
Gb|--------(2x)-----------------------(2x)----------------(4x)----------(2x)----|
Db|-6/7--7--7--7--7--7--7--7----3/4--4--4--4--------6/7--7--7--7----3/4--4--4--4|
Ab|-6/7--7--7--7--7--7--7--7----3/4--4--4--4--------6/7--7--7--7----3/4--4--4--4|
Eb|-4/5--5--5--5--5--5--5--5----1/2--2--2--2--------4/5--5--5--5----1/2--2--2--2|


Chorus(x4) 
I's hard to tell the strumming pattern, so listen to the song and try to figure it out
eb|---------------------------------------------------------------|
Bb|---------------------------------------------------------------|
Gb|-9----7--------------------------------------------------------|
Db|-9----7--------------------------------------------------------|
Ab|-7----5--------------------------------------------------------|
Eb|---------------------------------------------------------------|

Verse
Chorus

Bridge (x2) (played over verse chords)
eb|---------------------------------5-----------------------------|
Bb|-------2---5---2---------2---5-----------------2---------------|
Gb|-1/2---------------1/2---------------------3-------3-----------|
Db|-------------------------------------3-4-----------------------|
Ab|---------------------------------------------------------------|
Eb|---------------------------------------------------------------|

End Lead                                     
eb|-2---------2----------2---------2------------------------------|
Bb|----5--2-----5--2---5----5--2-----5--2-------------------------|
Gb|---------------------------------------------------------------|
Db|-------------------------------------------7-------------------|
Ab|-------------------------------------------7-------------------|
Eb|-------------------------------------------5-------------------|
            

comments powered by Disqus
↑ Back to top | Green Day Tabs for You Lied. Lyrics for acoustic guitar and electric guitar. Tablatures and chords are parodies/interpretations of the original songs. You may use it for private study, scholarship, research or language learning purposes only