» » »

Green Day, Rotting Tabs (ver.1)

Artists:  A B C D E F G H I J K L M N O P Q R S T U V W X Y Z # 

Rotting Tabs (ver.1)

Green Day Tabs
Rating:
0/5 (0 votes)
Rotting lessons Tabs too difficult? Try these video lessons and learn fast
                Guitar - Billie Joe Armstong
Bass - Mike Dirnt
Percussion - Tre Cool

Chords used in song:    
    C   G   F   Fm  Ab5 C5  G5
E|-------------------------------|
B|------12--10---9---------------|
G|--9---12--10--10-------5-------|
D|-10---12--10--10---6---5---5---|
A|-10---10---8---8---6---3---5---|
E|--8----------------4-------3---|


(Riff I) - Intro
e|---------------------------------------------------------------------------|
B|-----5--3-----------------5--------------------5--5------------------------|
G|---5------4------2-5----5------2-5----1-5----5----5------------------------|
D|-5----------5--3------5------3------3------5------5------------------------|
A|---------------------------------------------------------------------------|
E|---------------------------------------------------------------------------|


	C           G 
Verse I - I'm rotting inside
                 F	       C	
             My flesh turns to dust
	    F              Fm            C
	Whisper, “are you dying?” in my ear
	(Riff  I) 	
	I'm so sick to death
	Tumors in my head
	Whisper, “are you dying?” in my ear

          Ab5               C5
Chorus - Black rose of death
	Ab5             C5
	In my fist I clutch
	Ab5               C5
	Thorns shred my finger tips
             Ab5              G5
	And drips toxic blood

Verse II (Same chords as Verse I) - 
Kiss me one last time
Wipe off my sweat
Whisper, “are you dying?” in my ear
As my bones they rust
20 pounds of trust
Whisper, “are you dying?” in my ear

Chorus - Black rose of death
	In my fist I clutch
	Thorns shred my finger tips
	And drips toxic blood




Verse III (Outro) - (Same chords as Verses I and II) - 
I'm rotting inside
My flesh turns to dust
Whisper, “are you dying?” in my ear
Kiss me one last time
Wipe off my sweat
Whisper, “are you dying?” in my ear
Whisper, “are you dying?” in my ear

Green Day Fans : Thanx and enjoy!
            

comments powered by Disqus
↑ Back to top | Green Day Tabs for Rotting. Lyrics for acoustic guitar and electric guitar. Tablatures and chords are parodies/interpretations of the original songs. You may use it for private study, scholarship, research or language learning purposes only