» » »

Rotting Tabs (ver.2)

Artists:  A B C D E F G H I J K L M N O P Q R S T U V W X Y Z # 

Rotting Tabs (ver.2)

Green Day
Rating:
0/5 (0 votes)

Hard to play? Try these video lessons and learn fast.
                Green Day
Rotting (nimrod B-side)

This song can be found on the time of your life single. The open riff is on a fX pedal, I don’t what it is called, but on a keyboard it is called Fatasy 1. I’m not 100% on the words cause Billie isn’t singing them very clearly, but I’m 100% on the music.

Riff #1 (Play barre chords over the top)
   C       G     F       C    F       Fm   C       C
E|-----------------------------------------------------||
B|-------------------------------------------------1---||
G|-------------------------------------------------0---||
D|-----2-0-----------------2--------------------2--2---||
A|---3-----2------0--3---3-----0--3------3----3----3---||
E|-3---------3--1------3-----1------1--4----3------3---|| X1

Verse:1
C             G        F              C
I’m rotting inside, my flesh turns to dust.
F                Fm          C
Whispers, are you dying in my head.
(Play riff #1) 
Am so sick to death, tumours is in my head.
Whispers, are you dying in my head.

Riff #2 (Play barre chords over the top)
  Ab5    C5   Ab5     C5  Ab5     C5  Ab5      G5
E|---------------------------------------------------||
B|---------------------------------------------------||
G|---------------------------------------------------||
D|--------2-----------2-----------2------------------||
A|-3--3-5------3--3-5------3--3-5------3--3-5-3-2----||
E|----------3-----------3-----------3----------------|| X1

Chorus (Play riff #2)

Red rose of death, in my fist I cluch.
Thorn shred my finger tips, drips toxic blood.

Verse:2 (Same chords as verse 1)

Kiss me on last time, knocked off my swet.
Whispers, are you dying in my head.
As my bones E-rust, bleed pounds of trust.
Whispers, are you dying in my head.

//CHORUS//

Verse:3
I’m rotting inside, my flesh turns to dust. 
Whispers, are you dying in my head.
Kiss me on last time, knocked off my swet.                         FFC
Whispers, are you dying in my head. Whispers, are you dying in my head.

CHORDS USED.  C   G   F   Fm  Ab5 C5  G5
          E|-------------------------------|
          B|------12--10---9---------------|
          G|--9---12--10--10-------5-------|
          D|-10---12--10--10---6---5---5---|
          A|-10---10---8---8---6---3---5---|
          E|--8----------------4-------3---|
            
Hard to play? Try these video lessons and learn fast. | Correct




comments powered by Disqus
↑ Back to top | Tablatures and chords are parodies/interpretations of the original songs. You may use it for private study, scholarship, research or language learning purposes only