» » »

Pop Rocks And Coke Bass tabs (ver.3)

Artists:  A B C D E F G H I J K L M N O P Q R S T U V W X Y Z # 

Pop Rocks And Coke Bass tabs (ver.3)

Green Day
Rating:
0/5 (0 votes)

Hard to play? Try these video lessons and learn fast.
                --3-3-3-3-3-3-3--3-3-3--7-7--------------------------------------------



3-3-3-3-3-3-3-3-3-3--3-3-3-3-3-3-3-3-3-3--5-5-5-5-5-5-5-5-5-5---------



-5-5-5-5-5-5-5-5-5-5---------------------------------------------------
-------------------------5-5-5-5-5-5-5-5-5-5--5-5-5-5-5-5-5-5-5-5------




----------------------------3-3-3-3-3-3-3-3-3-3--3-3-3-3-3-3-3-3-3------
-00-0-0-0-0-0-5-5-5-5-5-5-----------------------------------------------



-5-5-5-5-5-5-5-5-5-5--5-5-5-5-5-5-5-5-5-5-------------------------------
-------------------------------------------5-5-5-5-5-5-5-5-5-5----------



-5-5-5-5-5-5-5-5-5-5-----------------------------------------------------


---0-0--5--3--7----0--5--3--7-----------------------------------------------------


I GAVE U TE NOTES THERES MORE FIGURE THEM OUT I'M TOO LAZY TO TAB THEM
            
Hard to play? Try these video lessons and learn fast. | Correct




comments powered by Disqus
↑ Back to top | Tablatures and chords are parodies/interpretations of the original songs. You may use it for private study, scholarship, research or language learning purposes only