» » »

Green Day, Pop Rocks And Coke Bass tabs (ver.1)

Artists:  A B C D E F G H I J K L M N O P Q R S T U V W X Y Z # 

Pop Rocks And Coke Bass tabs (ver.1)

Green Day Tabs
Rating:
0/5 (0 votes)
Pop Rocks And Coke lessons Tabs too difficult? Try these video lessons and learn fast
                KEY: / = SLIDE UP TO KNOWHERE

INTRO

G-----------------------------
D--------------------------2-2
A---0-00-0-0-00--0-00-0-0-0---
E-----------------------------

VERSE 

G-----------------------------------------------------------------------------------
D---------------0-00-0-0-00-0--------------2-22-2-2-22-1-0-00-0-0-00-0--------------
A-0-00-0-0-00-0--------------0-00-0-0-00-0-----------------------------0-00-0-0-00-0
E-----------------------------------------------------------------------------------

G-----------------------------------------------------------------------------------
D---------------0-00-0-0-00-0--------------2-22-2-2-22-1-0-00-0-0-00-0--------------
A-0-00-0-0-00-0--------------0-00-0-0-00-0-----------------------------0-00-0-0-00-0
E-----------------------------------------------------------------------------------

CHORUS

G-------------------------------------------------------------
D----------------------0------------------0------------------0
A-0----------------------0-22-222-0-00-00---0-22-222-0-00-00--
E--0-2-2-22-2-0-00-0000---------------------------------------

VERSE

G-----------------------------------------------------------------
D--------------0-00-0-0-00-0--------------2-22-2-2-22-1-----------
AXXXXXXXXXXXXX\-------------0-00-0-00-00---------------0-00-0-0-00
EXXXXXXXXXXXXX----------------------------------------------------

CHORUS

G-------------------------------------------------------------
D----------------------0------------------0------------------0
A-0----------------------0-22-222-0-00-00---0-22-222-0-00-00--
E--0-2-2-22-2-0-00-0000---------------------------------------


BRIDGE

G--------------------------------------------------------------------------------
D-------------------------------------------------------0-00-00-0-0-0------------
A-0-00-0-0-00-0-0-00-0-0-00-----------------0-00-00-0-0--------------0-00-00-0-0-
E---------------------------0-2-22-2-2-22-2--------------------------------------

G-------------------------------------------------------------
D-----------------------------000000000000000022222222222222--
A-----------------0-00-00-0-0--------------------------------0
E-0-2-22-2-2-22-2---------------------------------------------

VERSE

G---------------------------------------------------------------
D------------0-00-0-0-00-0--------------2-22-2-2-22-1-----------
A-----------\-------------0-00-0-00-00---------------0-00-0-0-00
E---------------------------------------------------------------

CHORUS

G------------------------------------------------------------------------------
D----------------------0------------------0------------------0-----------------
A-0----------------------0-22-222-0-00-00---0-22-222-0-00-00--0-222222222222222
E--0-2-2-22-2-0-00-0000--------------------------------------------------------

OUTRO

G---------------------------------------------------------------
D------------2-2------------2-2------------2-2------------------
A-0-00-0-0-0-----0-00-0-0-0-----0-00-0-0-0-----0 (LET NOTE RING)
E---------------------------------------------------------------
            
Submit corrections

comments powered by Disqus
↑ Back to top | Green Day Bass for Pop Rocks And Coke. Lyrics for acoustic guitar and electric guitar. Tablatures and chords are parodies/interpretations of the original songs. You may use it for private study, scholarship, research or language learning purposes only