» » »

Green Day, Outsider Tabs (ver.3)

Artists:  A B C D E F G H I J K L M N O P Q R S T U V W X Y Z # 

Outsider Tabs (ver.3)

Green Day Tabs
 Rating:
4/5 (4 votes)
Outsider lessons Tabs too difficult? Try these video lessons and learn fast
                Tuning: EADGBE

I’m the biggest Green Day fan on this earth, so I’m pretty sure I got this song down. I don’t know all of the lyrics so correct me if you know them. 

  Intro. (Chorus)
E---------------------------|
B---------------------------|
G---------------------------|
D----777777777---555555555--|
A----777777777---555555555--|
E----555555555---333333333--|

  This riff is in the intro while playing on the third fret.It is hard to here, so keep your ears open.

E-------------|
B-------------|
G-------------|
D-------------|
A-------------|
E----3-4-5-5--|

 Verse 2x
E------------------|
B------------------|
G------------------|
D----77777777-5-5--|
A----77777777-5-5--|
E----55555555-3-3--|


 Chorus 4x
E---------------------------|
B---------------------------|
G---------------------------|
D----777777777---555555555--|
A----777777777---555555555--|
E----555555555---333333333--|




 Verse 2 4x
E---------------------|
B---------------------|
G---------------------|
D----5555555-7777777--|
A----5555555-7777777--|
E----3333333-5555555--|


 Verse 4x
E------------------|
B------------------|
G------------------|
D----77777777-5-5--|
A----77777777-5-5--|
E----55555555-3-3--|

 Interlude
E--------------------------|
B--------------------------|
G----77777-55555-----------|
D----77777-55555-77777777--|
A----55555-33333-77777777--|
E----------------55555555--|


 Verse 2 4x
E---------------------|
B---------------------|
G---------------------|
D----5555555-7777777--|
A----5555555-7777777--|
E----3333333-5555555--|


 Chorus 4x
E---------------------------|
B---------------------------|
G---------------------------|
D----777777777---555555555--|
A----777777777---555555555--|
E----555555555---333333333--|





 Verse 3x            Last riff.
E------------------|-------------------|
B------------------|-------------------|
G------------------|-------------------|
D----77777777-5-5--|--77777777-5-5-7~--|
A----77777777-5-5--|--77777777-5-5-7~--|
E----55555555-3-3--|--55555555-3-3-5~--|


 Lyrics:

 Chorus/Intro.
   I’m an outsider, outside of everything
   I’m an outsider, outside of everything
   I’m an outsider, outside of everything
   Everything you know, everything you know
   It serves me so…

 Verse 2
   Everybodies got to push me
   Push me Around
   Everybodies try to push me
   Try puttin me down

  
Order:
 Intro.
 Verse
 Chorus
 Verse 2
 Verse
 Interlude
 Verse 2
 Chorus
 Verse
            
Submit corrections

comments powered by Disqus
↑ Back to top | Green Day Tabs for Outsider. Lyrics for acoustic guitar and electric guitar. Tablatures and chords are parodies/interpretations of the original songs. You may use it for private study, scholarship, research or language learning purposes only