>
 >
Outsider 1

Outsider 1 Guitar Tabs

Green Day - Outsider 1 chords, tabs, tablatures, lyrics

Guitar lessons | Add/correct | Request | Top 50 tabs Artists:  A B C D E F G H I J K L M N O P Q R S T U V W X Y Z 0-9

Outsider 1 Guitar Tabs – Green Day

CD, Sheet music, Poster

Do you like Outsider 1? Share with your friends now
ChordsTabsTabs v2Tabs v3
Tuning: 1/2step down

     This song I belive was written by Dee Dee Ramone. Im not a Big Ramones fan so I said F*** it ill tab 
It myself cuz I got lots of problems and nothing better to do. Have fun!

{Intro/Verse}
E-----------------------------------------------------------------
B-----------------------------------------------------------------
G-----------------------------------------------------------------
D-8-8-8-8-8-8-8-8-8-8-8-8-8-8-8-8-6-6-6-6-6-6-6-6-6-6-6-6-6-6-6-6-
A-8-8-8-8-8-8-8-8-8-8-8-8-8-8-8-8-6-6-6-6-6-6-6-6-6-6-6-6-6-6-6-6-
E-6-6-6-6-6-6-6-6-6-6-6-6-6-6-6-6-4-4-4-4-4-4-4-4-4-4-4-4-4-4-4-4-
   I’m an Outsider outside of every thing…..

{Fill}
E-----------------------------------------------------------------
B-----------------------------------------------------------------
G-----------------------------------------------------------------
D-6-6-8-8-8-8-8-8-8-----------------------------------------------
A-6-6-8-8-8-8-8-8-8-----------------------------------------------
E--4-4-6-6-6-6-6-6-6----------------------------------------------

{Chorus}
E-----------------------------------------------------------------
B-----------------------------------------------------------------
G-----------------------------------------------------------------
D-6-6-6-6-6-6-6-8-8-8-8-8-8-8-------------------------------------
A-6-6-6-6-6-6-6-8-8-8-8-8-8-8-------------------------------------
E--4-4-4-4-4-4-4-6-6-6-6-6-6-6------------------------------------
Every body’s gotta push me, push me around….

{Interlude}(this is a Very bad interpretation of whatever the hell Billie’s playing)
E-----------------------------------------------------------------
B-----------------------------------------------------------------
G-7-5-7-6-5-7-5-7-6-5---------------------------------------------
D-7-5-7-6-5-7-5-7-6-5-5-5-5-5-5-5-5-5-----------------------------
A-5-3-5-4-3-5-3-5-4-3-5-5-5-5-5-5-5-5-----------------------------
E---------------------3-3-3-3-3-3-3-3-----------------------------
  (not # of strums)      Oh yeah….

   Well that’s about it. If its wrong I really don’t care however im open to comments, ratings & corrections
Rock on!                                                -EricMelvinsGirl-





Comments


Popular Green Day tabs & chords
2000 Light Years Away 4 Bass Tabs
99 Revolutions Bass Tabs
American Idiot Live Bass Tabs
Espionage 2 Bass Tabs
Eye Of The Tiger Bass Tabs
21 Guns 8 Chords
Chump 1 Chords
Coming Clean Chords
Castaway 2 Tabs
Do Da Da 1 Tabs


Song lyrics



↑ Back to top | Tablatures and chords are parodies/interpretations of the original songs. You may use it for private study, scholarship, research or language learning purposes only
© 2014 AZChords.com Contact us | Privacy policy | DMCA | Add/correct tabs | Request tabs | Top 50 tabs