» » »

Green Day, Long View Tabs (ver.2)

Artists:  A B C D E F G H I J K L M N O P Q R S T U V W X Y Z # 

Long View Tabs (ver.2)

Green Day Tabs
 Rating:
4/5 (4 votes)
Long View lessons Tabs too difficult? Try these video lessons and learn fast
                "(2)
the verses are just bass lines and i dont play bass so i dont care :-)
when the drum roll starts:
e|------------------------|
b|-7-7-7-7-7-7-7-7-7-7-7--|
g|-7-7-7-7-7-7-7-7-7-7-7--|
d|-7-7-7-7-7-7-7-7-7-7-7-9|
a|-5-5-5-5-5-5-5-5-5-5-5-9|
E|-----------------------7|

chorus:
g|-------------------------9-9-9------------------|
d|-9-7-9-7-9-7-9-7-7-5-7-5-9-9-9-9-9-7-9-7-9-7-9-7|
a|-9-7-9-7-9-7-9-7-7-5-7-5-7-7-7-9-9-7-9-7-9-7-9-7|X-3
E|-7-7-7-7-7-7-7-5-5-5-5-5-------7-7-7-7-7-7-7-7-7|

aftr 3rd chorus:
g|-------------------------------8-/-|
d|-9-7-9-7-9-7-9-7-7-7-7-7-7-7-7-8-/-|
a|-9-7-9-7-9-7-9-7-7-7-7-7-7-7-7-6-/-|
E|-7-7-7-7-7-7-7-7-5-5-5-5-5-5-5-----|

"ive got no motavation....."
b|-9-9-9-9-9-9-9-/-7-7-7-7-7-7-7-|
g|-9-9-9-9-9-9-9-/-7-7-7-7-7-7-7-|
d|-9-9-9-9-9-9-9-/-7-7-7-7-7-7-7-|
a|-7-7-7-7-7-7-7-/-5-5-5-5-5-5-5-|

after the motavation part:
b|-------------------------------------------------------------------8-/-9-\-|
g|-------------------------9-9-9-9-9-9-------------------------------8-/-9-\-|
d|-9-7-9-7-9-7-9-7-7-5-7-5-9-9-9-9-9-9-9-7-9-7-9-9-9-9-7-7-7-7-7-7-7-8-/-9-\-|
a|-9-7-9-7-9-7-9-7-7-5-7-5-7-7-7-7-7-7-9-7-9-7-9-9-9-9-7-7-7-7-7-7-7-6-/-7-\-|
E|-7-7-7-7-7-7-7-5-5-5-5-5-------------7-7-7-7-7-7-7-7-5-5-5-5-5-5-5---------|

the very end:
e|-------------------------------12-|
b|-9-10-10-7-\-----------9-10-12-12-|
g|-9----9--7-\-----------9-----9----|
"            
Submit corrections

comments powered by Disqus
↑ Back to top | Green Day Tabs for Long View. Lyrics for acoustic guitar and electric guitar. Tablatures and chords are parodies/interpretations of the original songs. You may use it for private study, scholarship, research or language learning purposes only