» » »

Long View Bass tabs (ver.2)

Artists:  A B C D E F G H I J K L M N O P Q R S T U V W X Y Z # 

Long View Bass tabs (ver.2)

Green Day
Rating:
0/5 (0 votes)

Hard to play? Try these video lessons and learn fast.
                Tuning: D#G#C#F# (half a step down)

Notation:
19h18 hammer-on
x mute
7/9 slide
(5) hold note

w/pick

Intro
F#----R---------|---------------------------------------------|
C#----E---------|---------------------------------------------|
G#----S---------|--19h18-18h17-17h16-16h15-15h14-14h13---x-0--|
D#----T---------|---------------------------------------------|
      (drums)      |________________P.M._______________|


1st Verse
F#------------------------------------------------|--7/9--7---6---7---------|
C#------9---7---6-------7---6---4------9---7---6--|--0----0---0----0---0----|
G#--7-------------7-5---------5-----7-------------|-------------------------|
D#------------------------------------------------|-------------------------|

Pre-Chorus
F#-----------------------------|
C#-----------------------------|
G#---5-5-5-5-5-5-5-5-5-5-5-0---|
D#-----------------------------|

Chorus                                 x3     then
F#----------------------------------------|--------------------------------------|
C#----------------------------------------|--------------------------------------|
G#----------------------------7-7-7-0-----|--------------------------------------|
D#---7-x-7-x-7-x-7-x-5-x-5-x--------------|----7-x-7-x-7-x-7-x-5-5-5-5-5-5-5-5---|

2nd Verse
F#-------9-------9-----7----6---4--------|
C#----------7h9---9---0---0----0---7-0---|    then play same riff
G#---7-----------------------------------|      as 1st verse
D#---------------------------------------|

Bridge                                        x3
F#-------9--------------------------------------|
C#----------9---7---6---------------------------|
G#---7------------------5---4-------------------|
D#------------------------------7---5---(5)-----|

then
F#--------------------------------------------|
C#--------------------------------------------|
G#---------------------------------7-7-7-7-0--|
D#---7-x-7-x-7-x-7-x-5-5-5-x------------------|


then
F#----------------------------------------|
C#----------------------------------------|
G#----------------------------------------|
D#---7-x-7-x-7-7-7-7---5-5-5-5-5-5-5-5----|

3rd Verse (play 1st part of second verse 4x then 1st verse twice)

3rd Pre-Chorus play twice

Outro play 1st part of 2nd verse then fade away
            
Hard to play? Try these video lessons and learn fast. | Correct




comments powered by Disqus
↑ Back to top | Tablatures and chords are parodies/interpretations of the original songs. You may use it for private study, scholarship, research or language learning purposes only