» » »

Green Day, International Superhits Tabs (ver.2)

Artists:  A B C D E F G H I J K L M N O P Q R S T U V W X Y Z # 

International Superhits Tabs (ver.2)

Green Day Tabs
 Rating:
4/5 (4 votes)
International Superhits lessons Tabs too difficult? Try these video lessons and learn fast
                

Tuning: Standard 

Intro/Verse:

   B  G#m  E   F# X2 and then on the last time thru play B 
                     again and then go into Pre-Chorus

   B  G#m  E   F#
E--X---4---0---2-----------------------
B--4---4---0---2-----------------------
G--4---4---1---3-----------------------
D--4---6---2---4-----------------------
A--2---6---2---4-----------------------
E--X---4---0---2-----------------------
Pre-Chorus
"Give me something that I need" or "What's the consolation Prize"
  
  E   F#   E   F#
  
Chorus: 
 "Cause I'm thinkin' bout a brand new hope"
 
    B    F#/A#    G#m    F#    E   F#   B   
 
    B    F#/A#    G#m    F#    E 
E---X------X-------4-----2-----0-----------
B---4------7-------4-----2-----0-----------
G---4------6-------4-----3-----1-----------
D---4------4-------6-----4-----2-----------
A---2------X-------6-----4-----2-----------
E---X------6-------4-----2-----0-----------

BY ADAM FOX
            
Submit corrections

comments powered by Disqus
↑ Back to top | Green Day Tabs for International Superhits. Lyrics for acoustic guitar and electric guitar. Tablatures and chords are parodies/interpretations of the original songs. You may use it for private study, scholarship, research or language learning purposes only