>
 >
International Superhits

International Superhits Guitar Tabs

Green Day - International Superhits chords, tabs, tablatures, lyrics

Guitar lessons | Add/correct | Request | Top 50 tabs Artists:  A B C D E F G H I J K L M N O P Q R S T U V W X Y Z 0-9

International Superhits Guitar Tabs – Green Day

CD, Sheet music, Poster

Do you like International Superhits? Share with your friends now
TabsTabs v2
1. Maria

riff 1
E--------------------------------------------------
B--------------------------------------------------
G--7-7-7-------------------------------------------  
D--7-7-7-7-7---------------------------------------
A--5-5-5-7-7---------------------------------------
E--------5-5-5-5-5-5-5-5-5-5-5-5-5-5-5-5-5-5-5-5---

riff 2
E--------------------------------------------------
B--------------------------------------------------
G--------9-9-9-9-9-9-9-9-9-9-9-9-------------------  
D--7-7---9-9-9-9-9-9-9-9-9-9-9-9-------------------
A--7-7-0-7-7-7-7-7-7-7-7-7-7-7-7-------------------
E--5-5-0-------------------------------------------

riff 3(chorus)
E----------------------------------------------------------------
B----------------------------------------------------------------
G--7-7-7-7-------------7-7-7-7-------------7-7-7-7---------------
D--7-7-7-7-7-7-7-7-7-7-7-7-7-7-7-7-7-7-7-7-7-7-7-7-7-7-7-7-7-7---
A--5-5-5-5-7-7-7-7-7-7-5-5-5-5-7-7-7-7-7-7-5-5-5-5-7-7-7-7-7-7---
E----------5-5-5-5-5-5---------5-5-5-5-5-5---------5-5-5-5-5-5---

E------------------------
B------------------------
G--9-9-9-9-9-9-9-9-9-9---
D--9-9-9-9-9-9-9-9-9-9---
A--7-7-7-7-7-7-7-7-7-7---
E------------------------

riff 4
E----------------------
B------1010-1212-1010---
G--9-x-9-9--1111-9-9----
D--9-x-7-7--9-9--7-7----
A--7-x----------------
E----------------------

riff 5 (solo)
E--2-3-5---5-----5---2-3-5---5-----5---2-3-5---5-----5---4-4-5-5-7-5-4-5-4---
B--------3---5-3---5-------3---5-3---5-------3---5-3---5---------------------
G----------------------------------------------------------------------------
D----------------------------------------------------------------------------
A----------------------------------------------------------------------------
E----------------------------------------------------------------------------

E--2-3-5---5-----5---2-3-5---5-----5---2-3-5---5-----5---4-4-5-5-7-7-5-4-0-5---
B--------3---5-3---5-------3---5-3---5-------3---5-3---5-----------------------
G------------------------------------------------------------------------------
D------------------------------------------------------------------------------
A------------------------------------------------------------------------------
E------------------------------------------------------------------------------

E------------
B------------
G--7-7-7-----
D--7-7-7-7---
A--5-5-5-7---
E--------5---

order:
riff 1 x4
riff 2 x4
riff 1 x2
riff 2 x4
riff 3
riff 4 x6
riff 5
riff 1
riff 2 x4
riff 3 x2
riff 4 x4
riff 6

2. Pop Rocks & Coke
(figure out strumming patterns yourself)
intro    verse
E-------|------------------------------------------
B-------|------------------------------------------
G--6--9-|-6--7--6--9--7--6---6--7--6--9--7--6------
D--7--9-|-7--7--7--9--7--7---7--7--7--9--7--7------
A--7--7-|-7--5--7--7--5--7---7--5--7--7--5--7------
E--5----|-5-----5--------5---5-----5--------5------

chorus
E--------------------------------
B--------------------------------
G--7-------7-----9--7-----9--7---
D--7-2-4-2-7--7--9--7--7--9--7---
A--5-2-4-2-5--7--7--5--7--7--5---
E----0-2-0----5--------5---------

after chorus
E--------------------------------------
B--------------------------------------
G--6--9--------------------------------
D--7--9--------------------------------
A--7--7--------------------------------
E--5-----5-5-5-5-5-5-5-5-5-5-5-5-5-5---

verse(with distortion)
E-------------------------------------
B-------------------------------------
G--7--6--9--7--6---6--7--6--9--7--6---
D--7--7--9--7--7---7--7--7--9--7--7---
A--5--7--7--5--7---7--5--7--7--5--7---
E-----5--------5---5-----5--------5---

chorus(with distortion)
E--------------------------------
B--------------------------------
G--7-------7-----9--7-----9--7---
D--7-2-4-2-7--7--9--7--7--9--7---
A--5-2-4-2-5--7--7--5--7--7--5---
E----0-2-0----5--------5---------

bridge(distortion)
E---------------------------------------------------
B-----------------------------------------10-9------
G--6--------6--7-6--6-------6--7--6--7--9-------6---
D--7-2-4-2--7--7-6--7--4-2--7--7--6--7--9-------7---
A--7-2-4-2--7--5-4--7--4-2--7--5--4--5--7-------7---
E--5-0-2-0--5-------5--2-0--5-------------------5---

verse(with distortion)
E------------------
B------------------
G--7--6--9--7--6---
D--7--7--9--7--7---
A--5--7--7--5--7---
E-----5--------5---

chorus(with distortion)
E--------------------------------------
B--------------------------------------
G--7-------7-----9--7-----9--7--6--9---
D--7-2-4-2-7--7--9--7--7--9--7--7--9---
A--5-2-4-2-5--7--7--5--7--7--5--7--7---
E----0-2-0----5--------5--------5------

outro(no distortion)
E------------------------
B------------------------
G--6--9--6--9--6--9--6---
D--7--9--7--9--7--9--7---
A--7--7--7--7--7--7--7---
E--5-----5-----5-----5---

3. Longview

before chorus:    chorus:
E----------------|------------------------------------
B----------------|------------------------------------
G--777777777777--|--------------------------9-9-9-9---
D--777777777777--|--9-9-9-9-9-9-9-9-7-7-7-7-9-9-9-9---
A--555555555555--|--9-9-9-9-9-9-9-9-7-7-7-7-7-7-7-7---
E----------------|--7-7-7-7-7-7-7-7-5-5-5-5-----------

E--------------------------------------------------------------------
B--------------------------------------------------------------------
G--------------------------9-9-9-9-------------------------9-9-9-9---
D--9-9-9-9-9-9-9-9-7-7-7-7-9-9-9-9-9-9-9-9-9-9-9-9-7-7-7-7-9-9-9-9---
A--9-9-9-9-9-9-9-9-7-7-7-7-7-7-7-7-9-9-9-9-9-9-9-9-7-7-7-7-7-7-7-7---
E--7-7-7-7-7-7-7-7-5-5-5-5---------7-7-7-7-7-7-7-7-5-5-5-5-----------

E------------------------------------
B------------------------------------
G------------------------------------
D--9-9-9-9-9-9-9-9-7-7-7-7-7-7-7-7---
A--9-9-9-9-9-9-9-9-7-7-7-7-7-7-7-7---
E--7-7-7-7-7-7-7-7-5-5-5-5-5-5-5-5---

before chorus:    chorus:
E----------------|------------------------------------
B----------------|------------------------------------
G--777777777777--|--------------------------9-9-9-9---
D--777777777777--|--9-9-9-9-9-9-9-9-7-7-7-7-9-9-9-9---
A--555555555555--|--9-9-9-9-9-9-9-9-7-7-7-7-7-7-7-7---
E----------------|--7-7-7-7-7-7-7-7-5-5-5-5-----------

E--------------------------------------------------------------------
B--------------------------------------------------------------------
G--------------------------9-9-9-9-------------------------9-9-9-9---
D--9-9-9-9-9-9-9-9-7-7-7-7-9-9-9-9-9-9-9-9-9-9-9-9-7-7-7-7-9-9-9-9---
A--9-9-9-9-9-9-9-9-7-7-7-7-7-7-7-7-9-9-9-9-9-9-9-9-7-7-7-7-7-7-7-7---
E--7-7-7-7-7-7-7-7-5-5-5-5---------7-7-7-7-7-7-7-7-5-5-5-5-----------

E------------------------------------
B------------------------------------
G------------------------------------
D--9-9-9-9-9-9-9-9-7-7-7-7-7-7-7-7---
A--9-9-9-9-9-9-9-9-7-7-7-7-7-7-7-7---
E--7-7-7-7-7-7-7-7-5-5-5-5-5-5-5-5---

(i’ve got no motivation....)
E------------------------------------
B------------------------------------
G--9-9-9-9-9-9-9-9-7-7-7-7-7-7-7-7--- x4
D--9-9-9-9-9-9-9-9-7-7-7-7-7-7-7-7---
A--7-7-7-7-7-7-7-7-5-5-5-5-5-5-5-5---
E------------------------------------

E------------------------------------
B------------------------------------
G--------------------------9-9-9-9---
D--9-9-9-9-9-9-9-9-7-7-7-7-9-9-9-9---
A--9-9-9-9-9-9-9-9-7-7-7-7-7-7-7-7---
E--7-7-7-7-7-7-7-7-5-5-5-5-----------

E--------------------------------------------------------------------
B--------------------------------------------------------------------
G--------------------------9-9-9-9-------------------------9-9-9-9---
D--9-9-9-9-9-9-9-9-7-7-7-7-9-9-9-9-9-9-9-9-9-9-9-9-7-7-7-7-9-9-9-9---
A--9-9-9-9-9-9-9-9-7-7-7-7-7-7-7-7-9-9-9-9-9-9-9-9-7-7-7-7-7-7-7-7---
E--7-7-7-7-7-7-7-7-5-5-5-5---------7-7-7-7-7-7-7-7-5-5-5-5-----------

E------------------------------------
B------------------------------------
G------------------------------------
D--9-9-9-9-9-9-9-9-7-7-7-7-7-7-7-7---
A--9-9-9-9-9-9-9-9-7-7-7-7-7-7-7-7---
E--7-7-7-7-7-7-7-7-5-5-5-5-5-5-5-5---

before chorus:    chorus:
E-------------------|------------------------------------
B-------------------|------------------------------------
G--777777777777-----|--------------------------9-9-9-9---
D--777777777777-7-7-|--9-9-9-9-9-9-9-9-7-7-7-7-9-9-9-9---
A--555555555555-7-7-|--9-9-9-9-9-9-9-9-7-7-7-7-7-7-7-7---
E---------------5-5-|--7-7-7-7-7-7-7-7-5-5-5-5-----------

E--------------------------------------------------------------------
B--------------------------------------------------------------------
G--------------------------9-9-9-9-------------------------9-9-9-9---
D--9-9-9-9-9-9-9-9-7-7-7-7-9-9-9-9-9-9-9-9-9-9-9-9-7-7-7-7-9-9-9-9---
A--9-9-9-9-9-9-9-9-7-7-7-7-7-7-7-7-9-9-9-9-9-9-9-9-7-7-7-7-7-7-7-7---
E--7-7-7-7-7-7-7-7-5-5-5-5---------7-7-7-7-7-7-7-7-5-5-5-5-----------

E------------------------------------
B------------------------------------
G------------------------------------
D--9-9-9-9-9-9-9-9-7-7-7-7-7-7-7-7---
A--9-9-9-9-9-9-9-9-7-7-7-7-7-7-7-7---
E--7-7-7-7-7-7-7-7-5-5-5-5-5-5-5-5---

E------------------------------------------
B------------------6-------------------6---
G----------------5-------------------5-----
D--5h7-7-4---5h7-------5h7-7-4---5h7-------
A------------------------------------------
E------------------------------------------

4. Welcome To Paradise

intro
E----------------------------
B----------------------------
G--8-x-8-8-x-x-6-6----------- x4
D--8-x-8-8-x-x-6-6-x-6-6-6---
A--6-x-6-6-x-x-4-4-x-6-6-6---
E------------------x-4-4-4---

verse
E---------------------------------------------------------------------
B---------------------------------------------------------------------
G--8-8-8-8-6-6-6-6-8-x-8-8-8-8-8-8--8-8-8-8-6-6-6-6-------------------
D--8-8-8-8-6-6-6-6-8-x-8-8-8-8-8-8--8-8-8-8-6-6-6-6-4-4-4-4-8-8-8-8---
A--6-6-6-6-4-4-4-4-6-x-6-6-6-6-6-6--6-6-6-6-4-4-4-4-4-4-4-4-8-8-8-8---
E---------------------------------------------------2-2-2-2-6-6-6-6---

E---------------------------------------------------------------------
B---------------------------------------------------------------------
G--8-8-8-8-6-6-6-6-8-x-8-8-8-8-8-8--8-8-8-8-6-6-6-6-------------------
D--8-8-8-8-6-6-6-6-8-x-8-8-8-8-8-8--8-8-8-8-6-6-6-6-4-4-4-4-8-8-8-8---
A--6-6-6-6-4-4-4-4-6-x-6-6-6-6-6-6--6-6-6-6-4-4-4-4-4-4-4-4-8-8-8-8---
E---------------------------------------------------2-2-2-2-6-6-6-6---

E-----------------------------------
B-----------------------------------
G-----------------------------------
D--4-4-4-4--8-8-8-8-8-8-8-8-8-8-8---
A--4-4-4-4--8-8-8-8-8-8-8-8-8-8-8---
E--2-2-2-2--6-6-6-6-6-6-6-6-6-6-6---

chorus
E------------------------------------------------------------
B------------------------------------------------------------
G--------------------------4-4-4-4---------------------------
D--2-2-2-2-4-4-4-4-6-6-6-6-4-4-4-4-2-2-2-2-4-4-4-4-8-8-8-8---
A--2-2-2-2-4-4-4-4-6-6-6-6-2-2-2-2-2-2-2-2-4-4-4-4-8-8-8-8---
E--0-0-0-0-2-2-2-2-4-4-4-4---------0-0-0-0-2-2-2-2-6-6-6-6---

bridge
E---------------|----------------------------------
B--10-13-12-11--|------10-------13-----12-----11---
G---------------|----------------------------------
D--7--10-9--8---|--7-7----10-10----9-9----8-8------
A---------------|----------------------------------
E---------------|----------------------------------

put it all together and give yourself a high five

5. Basket Case


E------------------------------------------------------------------
B------------------------------------------------------------------
G--8-8-x-x-x-x-x-----------5-5-x-x-x-x-x---------------------------
D--8-8-x-x-x-x-x-8-x-8-8-8-5-5-x-x-x-x-x-5-x-5-5-5-6-6-x-x-x-x-x---
A--6-6-x-x-x-x-x-8-x-8-8-8-3-3-x-x-x-x-x-5-x-5-5-5-6-6-x-x-x-x-x---
E----------------6-x-6-6-6---------------3-x-3-3-3-4-4-x-x-x-x-x---

E--------------------------------
B--------------------------------
G--8-x-8-8-8--------------------- x2
D--8-x-8-8-8-8-8-8-8-8-8-8-8-8---
A--6-x-6-6-6-8-8-8-8-8-8-8-8-8---
E------------6-6-6-6-6-6-6-6-6---

E----------------------------------------------------
B----------------------------------------------------
G--------------------------x-x-8-x-x-x-8-x-8-x-8-8--- x2
D--x-x-6-x-x-x-8-x-8-x-8-8-x-x-8-x-x-x-8-x-8-x-8-8---
A--x-x-6-x-x-x-8-x-8-x-8-8-6-6-6-6-6-6-6-6-6-6-6-6---
E--4-4-4-4-4-4-6-6-6-6-6-6---------------------------

E----------------------------------------------------------------
B----------------------------------------------------------------
G------------------------------8--6--5-5-5-5-5-5-5---------------
D--6-x-x-x-x-x-8-x-x-x-x-x-x-x-8--6--5-5-5-5-5-5-5-6-6-6-6-6-6---
A--6-x-x-x-x-x-8-x-x-x-x-x-x-x-6--4--3-3-3-3-3-3-3-6-6-6-6-6-6---
E--4-4-4-4-4-4-6-6-6-6-6-6-6-6---------------------4-4-4-4-4-4---

E-------------------------------------------------------------
B-------------------------------------------------------------
G----------------8-x-------------------8-x--------------------
D--8-8-8-8-8-8-8-8-x-8-8-x-1010-x-8-8--8-x-8-8-x-1010-x-8-8---
A--8-8-8-8-8-8-8-6-x-8-8-x-1010-x-8-8--6-x-8-8-x-1010-x-8-8---
E--6-6-6-6-6-6-6-----6-6-x-8-8--x-6-6------6-6-x-8-8--x-6-6---


E------------------------------------------------------------------
B------------------------------------------------------------------
G--8-8-8-8-8-8-8-----------5-5-5-5-5-5-5---------------------------
D--8-8-8-8-8-8-8-8-8-8-8-8-5-5-5-5-5-5-5-5-5-5-5-5-6-6-6-6-6-6-6---
A--6-6-6-6-6-6-6-8-8-8-8-8-3-3-3-3-3-3-3-5-5-5-5-5-6-6-6-6-6-6-6---
E----------------6-6-6-6-6---------------3-3-3-3-3-4-4-4-4-4-4-4--

E--------------------------------
B--------------------------------
G--8-8-8-8-8--------------------- x2
D--8-8-8-8-8-8-8-8-8-8-8-8-8-8---
A--6-6-6-6-6-8-8-8-8-8-8-8-8-8---
E------------6-6-6-6-6-6-6-6-6---


E----------------------------------------------------
B----------------------------------------------------
G--------------------------8-8-8-8-8-8-8-8-8-8-8-8--- x2
D--6-6-6-6-6-6-8-8-8-8-8-8-8-8-8-8-8-8-8-8-8-8-8-8---
A--6-6-6-6-6-6-8-8-8-8-8-8-6-6-6-6-6-6-6-6-6-6-6-6---
E--4-4-4-4-4-4-6-6-6-6-6-6---------------------------

E----------------------------------------------------------------
B----------------------------------------------------------------
G------------------------------8--6--5-5-5-5-5-5-5---------------
D--6-6-6-6-6-6-8-8-8-8-8-8-8-8-8--6--5-5-5-5-5-5-5-6-6-6-6-6-6---
A--6-6-6-6-6-6-8-8-8-8-8-8-8-8-6--4--3-3-3-3-3-3-3-6-6-6-6-6-6---
E--4-4-4-4-4-4-6-6-6-6-6-6-6-6---------------------4-4-4-4-4-4---

E-------------------------------------------------------------
B-------------------------------------------------------------
G----------------8-x-------------------8-x--------------------
D--8-8-8-8-8-8-8-8-x-8-8-x-1010-x-8-8--8-x-8-8-x-1010-x-8-8---
A--8-8-8-8-8-8-8-6-x-8-8-x-1010-x-8-8--6-x-8-8-x-1010-x-8-8---
E--6-6-6-6-6-6-6-----6-6-x-8-8--x-6-6------6-6-x-8-8--x-6-6---

E------------------------------------------------------
B------------------------------------------------------
G------------------------------------------------------
D--6-x-x-x-x-x-x-x-x-x-x-x-x-x-x-x-8-8-8-8-8-8-8-8-8---
A--6-x-x-x-x-x-x-x-x-x-x-x-x-x-x-x-8-8-8-8-8-8-8-8-8---
E--4-4-4-4-4-4-4-4-4-4-4-4-4-4-4-4-6-6-6-6-6-6-6-6-6---

E--------------------------------------------------------------
B--------------------------------------------------------------
G----------3-3-3-3-3-3-5-5-5-5-------------------8-8-8-8-8-8---
D--3-3-3-3-3-3-3-3-3-3-5-5-5-5-5-5-5-5-5-6-6-6-6-8-8-8-8-8-8---
A--3-3-3-3-1-1-1-1-1-1-3-3-3-3-5-5-5-5-5-6-6-6-6-6-6-6-6-6-6---
E--1-1-1-1---------------------3-3-3-3-3-4-4-4-4---------------

E------------------------
B------------------------
G------------------------
D--8-8-8-8-8-8-8-8-8-8---
A--8-8-8-8-8-8-8-8-8-8---
E--6-6-6-6-6-6-6-6-6-6---

E------------------------------------------------------------------
B------------------------------------------------------------------
G--8-8-8-8-8-8-8-----------5-5-5-5-5-5-5---------------------------
D--8-8-8-8-8-8-8-8-8-8-8-8-5-5-5-5-5-5-5-5-5-5-5-5-6-6-6-6-6-6-6---
A--6-6-6-6-6-6-6-8-8-8-8-8-3-3-3-3-3-3-3-5-5-5-5-5-6-6-6-6-6-6-6---
E----------------6-6-6-6-6---------------3-3-3-3-3-4-4-4-4-4-4-4--

E--------------------------------
B--------------------------------
G--8-8-8-8-8--------------------- x2
D--8-8-8-8-8-8-8-8-8-8-8-8-8-8---
A--6-6-6-6-6-8-8-8-8-8-8-8-8-8---
E------------6-6-6-6-6-6-6-6-6---


E----------------------------------------------------
B----------------------------------------------------
G--------------------------x-x-8-x-x-x-8-x-8-x-8-8--- x2
D--x-x-6-x-x-x-8-x-8-x-8-8-x-x-8-x-x-x-8-x-8-x-8-8---
A--x-x-6-x-x-x-8-x-8-x-8-8-6-6-6-6-6-6-6-6-6-6-6-6---
E--4-4-4-4-4-4-6-6-6-6-6-6---------------------------

6. When I Come Around

Intro/Verse
E------------------------------------
B------------------------------------
G------------x-x-6-6-6-x-x-x-8-x-4--- x11
D--x-x-4-4-4-x-x-6-6-6-x-x-x-8-x-4---
A--x-x-4-4-4-x-x-4-4-4-x-x-x-6-x-2---
E--x-x-2-2-2-------------------------
Chorus
E--------------------------------------------------------
B--------------------------------------------------------
G----------------------------4-4-4-4-4-4-4-4-4-4-4-4-4---
D--6-6-6-6-6-6-6-6-6-6-6-6-6-4-4-4-4-4-4-4-4-4-4-4-4-4---
A--6-6-6-6-6-6-6-6-6-6-6-6-6-2-2-2-2-2-2-2-2-2-2-2-2-2---
E--4-4-4-4-4-4-4-4-4-4-4-4-4-----------------------------

E------------------------------------------------
B------------------------------------------------
G----------------------------4-4-4-4-4-4-4-4-4---
D--6-6-6-6-6-6-6-6-6-6-6-6-6-4-4-4-4-4-4-4-4-4---
A--6-6-6-6-6-6-6-6-6-6-6-6-6-2-2-2-2-2-2-2-2-2---
E--4-4-4-4-4-4-4-4-4-4-4-4-4---------------------

verse
E------------------------------------
B------------------------------------
G------------x-x-6-6-6-x-x-x-8-x-4--- x10
D--x-x-4-4-4-x-x-6-6-6-x-x-x-8-x-4---
A--x-x-4-4-4-x-x-4-4-4-x-x-x-6-x-2---
E--x-x-2-2-2-------------------------

Chorus
E--------------------------------------------------------
B--------------------------------------------------------
G----------------------------4-4-4-4-4-4-4-4-4-4-4-4-4---
D--6-6-6-6-6-6-6-6-6-6-6-6-6-4-4-4-4-4-4-4-4-4-4-4-4-4---
A--6-6-6-6-6-6-6-6-6-6-6-6-6-2-2-2-2-2-2-2-2-2-2-2-2-2---
E--4-4-4-4-4-4-4-4-4-4-4-4-4-----------------------------

E------------------------------------------------
B------------------------------------------------
G----------------------------4-4-4-4-4-4-4-4-4---
D--6-6-6-6-6-6-6-6-6-6-6-6-6-4-4-4-4-4-4-4-4-4---
A--6-6-6-6-6-6-6-6-6-6-6-6-6-2-2-2-2-2-2-2-2-2---
E--4-4-4-4-4-4-4-4-4-4-4-4-4---------------------

after second chorus
E------------------------------------
B------------------------------------
G------------x-x-6-6-6-x-x-x-8-x-4--- x2
D--x-x-4-4-4-x-x-6-6-6-x-x-x-8-x-4---
A--x-x-4-4-4-x-x-4-4-4-x-x-x-6-x-2---
E--x-x-2-2-2-------------------------

solo
E--2---2---4---4---2---2-4---4---2-----4-4-4-2-2-------------------
B----2---2---2---2---2-----2---2---2-2-----------2-4-4-4-4-4-4p2---
G------------------------------------------------------------------
D------------------------------------------------------------------
A------------------------------------------------------------------
E------------------------------------------------------------------

Chorus
E--------------------------------------------------------
B--------------------------------------------------------
G----------------------------4-4-4-4-4-4-4-4-4-4-4-4-4---
D--6-6-6-6-6-6-6-6-6-6-6-6-6-4-4-4-4-4-4-4-4-4-4-4-4-4---
A--6-6-6-6-6-6-6-6-6-6-6-6-6-2-2-2-2-2-2-2-2-2-2-2-2-2---
E--4-4-4-4-4-4-4-4-4-4-4-4-4-----------------------------

E------------------------------------------------
B------------------------------------------------
G----------------------------4-4-4-4-4-4-4-4-4---
D--6-6-6-6-6-6-6-6-6-6-6-6-6-4-4-4-4-4-4-4-4-4---
A--6-6-6-6-6-6-6-6-6-6-6-6-6-2-2-2-2-2-2-2-2-2---
E--4-4-4-4-4-4-4-4-4-4-4-4-4---------------------

outro
E------------------------------------
B------------------------------------
G------------x-x-6-6-6-x-x-x-8-x-4--- x4
D--x-x-4-4-4-x-x-6-6-6-x-x-x-8-x-4---
A--x-x-4-4-4-x-x-4-4-4-x-x-x-6-x-2---
E--x-x-2-2-2-------------------------

good job. im so proud of you.

7. She

(figure out strumming patterns yourself)
before chorus|chorus
E------------|------------------------------------------
B------------|------------------------------------------
G------------|--6--4-----6--4-----4-----4-----4-----6---
D--4---------|--6--4--4--6--4--4--4--4--4--4--4--4--6---
A--4---------|--4--2--4--4--2--4--2--4--2--4--2--4--4---
E--2---------|--------2--------2-----2-----2-----2------

verse
E-----------------------------------
B-----------------------------------
G-----6--4----4-------6--4----4-----
D--4--6--4--4-4-4--4--6--4--4-4-4---
A--4--4--2--4-2-4--4--4--2--4-2-4---
E--2--------2---2--2--------2---2---

chorus
E------------------------------------------
B------------------------------------------
G--6--4-----6--4-----4-----4-----4-----6---
D--6--4--4--6--4--4--4--4--4--4--4--4--6---
A--4--2--4--4--2--4--2--4--2--4--2--4--4---
E--------2--------2-----2-----2-----2------

bridge
E-----------------------------------
B-----------------------------------
G-----6--4----4-------6--4----4-----
D--4--6--4--4-4-4--4--6--4--4-4-4---
A--4--4--2--4-2-4--4--4--2--4-2-4---
E--2--------2---2--2--------2---2---

chorus                                     outro
E-----------------------------------------|------
B-----------------------------------------|------
G--6--4-----6--4-----4-----4-----4-----6--|------
D--6--4--4--6--4--4--4--4--4--4--4--4--6--|--4---
A--4--2--4--4--2--4--2--4--2--4--2--4--4--|--4---
E--------2--------2-----2-----2-----2-----|--2---

8. J.A.R. (Jason Andrews Relva)
(figure out strumming patterns urself)

intro/verse
E--------------------------------
B--------------------------------
G--6-------------6---------------
D--6-6--4--6--4--6--6--4--6--4---
A--4-6--4--6--4--4--6--4--6--4---
E----4--2--4--2-----4--2--4--2---

chorus
E--------------------
B--------------------
G-----6--------6-----
D--4--6--6--4--6-6---
A--4--4--6--4--4-6---
E--2-----4--2----4---

part after chorus
E------------------
B------------------
G----6---6---6-----
D--4-6-6-6-4-6-6---
A--4-4-6-4-4-4-6---
E--2---4---2---4---

bridge(palm muted)
E------------------------
B------------------------
G--4-----6-----4---------
D--4--4--6--6--4--4--6---
A--2--4--4--6--2--4--6---
E-----2-----4-----2--4---

solo
E------------------------------------------------------------------------------
B------------------------------------------------------------------------------
G--6----6-6-6-6-6-5-3-5-6-6-6-6-10-8-10-8--6-6-6-6-6-5-3-5-6-6-6-6-10-8-10-8---
D--6-6-------------------------------------------------------------------------
A--4-6-------------------------------------------------------------------------
E----4-------------------------------------------------------------------------

E--------------------------------------------------------------------------------
B--------------------------------------------------------------------------------
G--6-6-6-6-6-5-3-5-6-6-6-6-10-8-10-8-6-6-6-6-6-5-3-5-6-6-6-6/13-13-13-13-13-13---
D--------------------------------------------------------------------------------
A--------------------------------------------------------------------------------
E--------------------------------------------------------------------------------

figure out the order yourself and something magical will happen

9. Geek Stink Breath
p= palm mute

intro
E--------------------
B--------------------
G--------------4-4--- x4
D--4-4-2-2-2-2-4-4---
A--4-4-0-0-0-0-2-2---
E--2-2-0-0-0-0-------

verse I
E----------------------------
B----------------------------
G---------------------------- x6
D--4-x-4-2-2-2-4-4-4-2-2-2---
A--4-x-4-2-2-2-4-4-4-2-2-2---
E--2-x-2-0-0-0-2-2-2-0-0-0---
         p p   p p   p p
chorus
E------------------|    |------------------|    |--------------------
B------------------|    |------------------|    |--------------------
G--2-2-2-----------| x4 |------------------| x3 |-------------------- x1
D--2-2-2-2-2-4-2---|    |--4-4-4-2-2-2-2---|    |--4-4-4-4-4-4-4-4---
A--0-0-0-2-2-4-2---|    |--4-4-4-2-2-2-2---|    |--4-4-4-4-4-4-4-4---
E--------0-0-2-0---|    |--2-2-2-0-0-0-0---|    |--2-2-2-2-2-2-2-2---

verse II
E----------------------------
B----------------------------
G---------------------------- x6
D--4-x-4-2-2-2-4-4-4-2-2-2---
A--4-x-4-2-2-2-4-4-4-2-2-2---
E--2-x-2-0-0-0-2-2-2-0-0-0---
         p p   p p   p p
chorus II
E------------------|    |------------------|    |--------------------
B------------------|    |------------------|    |--------------------
G--2-2-2-----------| x4 |------------------| x3 |-------------------- x1
D--2-2-2-2-2-4-2---|    |--4-4-4-2-2-2-2---|    |--4-4-4-4-4-4-4-4---
A--0-0-0-2-2-4-2---|    |--4-4-4-2-2-2-2---|    |--4-4-4-4-4-4-4-4---
E--------0-0-2-0---|    |--2-2-2-0-0-0-0---|    |--2-2-2-2-2-2-2-2---

after chorus II
E--------------------
B--------------------
G--------------4-4--- x4
D--4-4-2-2-2-2-4-4---
A--4-4-0-0-0-0-2-2---
E--2-2-0-0-0-0-------

verse III
E----------------------------
B------------------------------------
G------------------------------------ x4
D--4-4-4-4-2-2-2-2-4-4-4-4-2-2-2-2---
A--4-4-4-4-2-2-2-2-4-4-4-4-2-2-2-2---
E--2-2-2-2-0-0-0-0-2-2-2-2-0-0-0-0---

chorus III
E------------------|    |------------------|    |--------------------
B------------------|    |------------------|    |--------------------
G--2-2-2-----------| x4 |------------------| x3 |-------------------- x1
D--2-2-2-2-2-4-2---|    |--4-4-4-2-2-2-2---|    |--4-4-4-4-4-4-4-4---
A--0-0-0-2-2-4-2---|    |--4-4-4-2-2-2-2---|    |--4-4-4-4-4-4-4-4---
E--------0-0-2-0---|    |--2-2-2-0-0-0-0---|    |--2-2-2-2-2-2-2-2---

after chorus III
E--------------------
B--------------------
G--------------4-4--- x6
D--4-4-2-2-2-2-4-4---
A--4-4-0-0-0-0-2-2---
E--2-2-0-0-0-0-------

outro
E--------
B--------
G--------
D--4-4---
A--4-4---
E--2-2---

10. Brain Stew
(the hardest song in the world)

intro/verse/verse II
E----------------------------
B----------------------------
G----------------------------
D--7-7--5-5--4-4--3-3--2-2---
A--7-7--5-5--4-4--3-3--2-2---
E--5-5--3-3--2-2--1-1--0-0---

chorus/verse III
E----------------------------------------------------------------
B----------------------------------------------------------------
G----------------------------------------------------------------
D--7-7-x-x-x-x-x-x-5-5-x-x-x-x-x-x-4-4-x-x-x-x-x-x-3-3-x-x-2-2---
A--7-7-x-x-x-x-x-x-5-5-x-x-x-x-x-x-4-4-x-x-x-x-x-x-3-3-x-x-2-2---
E--5-5-x-x-x-x-x-x-3-3-x-x-x-x-x-x-2-2-x-x-x-x-x-x-1-1-x-x-0-0---

11. Jaded

intro/verse
E------------------
B------------------
G--------------6---
D--6-6-6\4-4-4-6---
A--6-6-6\4-4-4-4---
E--4-4-4\2-2-2-----

“always move forward...”
E------------------------------------------------------------
B-------------------------------------------------------------
G----------6-6-6-6-6-6-6-6-6-6-6-6----------------------------
D--6-6-6-6-6-6-6-6-6-6-6-6-6-6-6-6-6-6-6-6-4-6--6-6-6-6-4-6---
A--6-6-6-6-4-4-4-4-4-4-4-4-4-4-4-4-6-6-6-6-4-6--6-6-6-6-4-6---
E--4-4-4-4-------------------------4-4-4-4-2-4--4-4-4-4-2-4---

“there is no progress...”
E----------------------------------------------------
B----------------------------------------------------
G--6-6-6-6-6-6-6-6-6-6-6-6-8-8-8-8-8-8-8-8-8-8-8-8---
D--6-6-6-6-6-6-6-6-6-6-6-6-8-8-8-8-8-8-8-8-8-8-8-8---
A--4-4-4-4-4-4-4-4-4-4-4-4-6-6-6-6-6-6-6-6-6-6-6-6---
E----------------------------------------------------

apply, rinse, and repeat.

12. Walking Contradiction

intro
E--------------------------------------------------------------
B--------------------------------------------------------------
G--------------------------------------------------------------
D--6-6-6-6-6-6-6-6-6-6-6-6-6-6-6-6-6-6-6-6-6-6-6-6-6-6-6-6-6---
A--6-6-6-6-6-6-6-6-6-6-6-6-6-6-6-6-6-6-6-6-6-6-6-6-6-6-6-6-6---
E--4-4-4-4-4-4-4-4-4-4-4-4-4-4-4-4-4-4-4-4-4-4-4-4-4-4-4-4-4---
     p p p p p p p p p p p p p p p p p p p p 
verse
E---------------------------------------------
B---------------------------------------------
G------6-6--------------------6-6------------- x7
D--6-x-6-6-x-4-4-6-6-6-6--6-x-6-6-x-4-4-6-6---
A--6-x-4-4-x-4-4-6-6-6-6--6-x-4-4-x-4-4-6-6---
E--4-x-----x-2-2-4-4-4-4--4-x-----x-2-2-4-4---

chorus
E--------------------------------
B--------------------------------
G--6----------------------------- x4
D--6-x-x-4-4-x-6-6-6-6-6-6-6-6---
A--4-x-x-4-4-x-6-6-6-6-6-6-6-6---
E----x-x-2-2-x-4-4-4-4-4-4-4-4---

verse
E---------------------------------------------
B---------------------------------------------
G------6-6--------------------6-6------------- x6
D--6-x-6-6-x-4-4-6-6-6-6--6-x-6-6-x-4-4-6-6---
A--6-x-4-4-x-4-4-6-6-6-6--6-x-4-4-x-4-4-6-6---
E--4-x-----x-2-2-4-4-4-4--4-x-----x-2-2-4-4---

chorus
E--------------------------------
B--------------------------------
G--6----------------------------- x8
D--6-x-x-4-4-x-6-6-6-6-6-6-6-6---
A--4-x-x-4-4-x-6-6-6-6-6-6-6-6---
E----x-x-2-2-x-4-4-4-4-4-4-4-4---
outro
E---------------------------------------------
B---------------------------------------------
G------6-6--------------------6-6------------- 
D--6-x-6-6-x-4-4-6-6-6-6--6-x-6-6-x-4-4-2-2---
A--6-x-4-4-x-4-4-6-6-6-6--6-x-4-4-x-4-4-2-2---
E--4-x-----x-2-2-4-4-4-4--4-x-----x-2-2-0-0---

E---------------------------------------------
B---------------------------------------------
G------6-6--------------------6-6-------------
D--6-x-6-6-x-4-4-6-6-6-6--6-x-6-6-x-4-4-6-6---
A--6-x-4-4-x-4-4-6-6-6-6--6-x-4-4-x-4-4-6-6---
E--4-x-----x-2-2-4-4-4-4--4-x-----x-2-2-4-4---

13. Stuck With Me
p= palm mute

intro
E-----------------------------------------------------
B-----------------------------------------------------
G--8-8-8-8-8-8-8-8-8---------------------------------- x2
D--8-8-8-8-8-8-8-8-8-10-8-6-6-6-6-6-6-6-6-6-6-6-6-6---
A--6-6-6-6-6-6-6-6-6-10-8-6-6-6-6-6-6-6-6-6-6-6-6-6---
E--------------------8--6-4-4-4-4-4-4-4-4-4-4-4-4-4---

verse
E------------------------------------------
B------------------------------------------
G--8-8-8-8-8-8-8-8-8-8---------------------
D--8-8-8-8-8-8-8-8-8-8-8-8-8-8-8-8-8-8-8---
A--6-6-6-6-6-6-6-6-6-6-8-8-8-8-8-8-8-8-8---
E----------------------6-6-6-6-6-6-6-6-6---
     p p p p p p p p
E--------------------------------------------
B--------------------------------------------
G--------------------------------------------
D--6-6-6-6-8-8-8-8-8-8-6-6-6-6-8-8-8-8-8-8---
A--6-6-6-6-8-8-8-8-8-8-6-6-6-6-8-8-8-8-8-8---
E--4-4-4-4-6-6-6-6-6-6-4-4-4-4-6-6-6-6-6-6---

E------------------------------------------
B------------------------------------------
G--8-8-8-8-8-8-8-8-8-8---------------------
D--8-8-8-8-8-8-8-8-8-8-8-8-8-8-8-8-8-8-8---
A--6-6-6-6-6-6-6-6-6-6-8-8-8-8-8-8-8-8-8---
E----------------------6-6-6-6-6-6-6-6-6---

E--------------------------------------------
B--------------------------------------------
G--------------------------------------------
D--6-6-6-6-8-8-8-8-8-8-6-6-6-6-8-8-8-8-8-8---
A--6-6-6-6-8-8-8-8-8-8-6-6-6-6-8-8-8-8-8-8---
E--4-4-4-4-6-6-6-6-6-6-4-4-4-4-6-6-6-6-6-6---

chorus
E--------------------------------------------------
B--------------------------------------------------
G--5-5-5-5-5-5-5-----8-8-8-8-8-8-8-8-8-8-8-8-8-8--- x3
D--5-5-5-5-5-5-5-6-6-8-8-8-8-8-8-8-8-8-8-8-8-8-8---
A--3-3-3-3-3-3-3-6-6-6-6-6-6-6-6-6-6-6-6-6-6-6-6---
E----------------4-4-------------------------------

E------------------------------------------------
B------------------------------------------------
G----------------------8-8-8-8-8-8-8-8-8-8-8-8---
D--6-6-6-6-8-8-8-8-8-8-8-8-8-8-8-8-8-8-8-8-8-8---
A--6-6-6-6-8-8-8-8-8-8-6-6-6-6-6-6-6-6-6-6-6-6---
E--4-4-4-4-6-6-6-6-6-6---------------------------

verse
E------------------------------------------
B------------------------------------------
G--8-8-8-8-8-8-8-8-8-8---------------------
D--8-8-8-8-8-8-8-8-8-8-8-8-8-8-8-8-8-8-8---
A--6-6-6-6-6-6-6-6-6-6-8-8-8-8-8-8-8-8-8---
E----------------------6-6-6-6-6-6-6-6-6---

E--------------------------------------------
B--------------------------------------------
G--------------------------------------------
D--6-6-6-6-8-8-8-8-8-8-6-6-6-6-8-8-8-8-8-8---
A--6-6-6-6-8-8-8-8-8-8-6-6-6-6-8-8-8-8-8-8---
E--4-4-4-4-6-6-6-6-6-6-4-4-4-4-6-6-6-6-6-6---

E------------------------------------------
B------------------------------------------
G--8-8-8-8-8-8-8-8-8-8---------------------
D--8-8-8-8-8-8-8-8-8-8-8-8-8-8-8-8-8-8-8---
A--6-6-6-6-6-6-6-6-6-6-8-8-8-8-8-8-8-8-8---
E----------------------6-6-6-6-6-6-6-6-6---
     p p p p p p p p
E--------------------------------------------
B--------------------------------------------
G--------------------------------------------
D--6-6-6-6-8-8-8-8-8-8-6-6-6-6-8-8-8-8-8-8---
A--6-6-6-6-8-8-8-8-8-8-6-6-6-6-8-8-8-8-8-8---
E--4-4-4-4-6-6-6-6-6-6-4-4-4-4-6-6-6-6-6-6---

chorus
E--------------------------------------------------
B--------------------------------------------------
G--5-5-5-5-5-5-5-----8-8-8-8-8-8-8-8-8-8-8-8-8-8--- x3
D--5-5-5-5-5-5-5-6-6-8-8-8-8-8-8-8-8-8-8-8-8-8-8---
A--3-3-3-3-3-3-3-6-6-6-6-6-6-6-6-6-6-6-6-6-6-6-6---
E----------------4-4-------------------------------

E------------------------------------------------
B------------------------------------------------
G----------------------8-8-8-8-8-8-8-8-8-8-8-8---
D--6-6-6-6-8-8-8-8-8-8-8-8-8-8-8-8-8-8-8-8-8-8---
A--6-6-6-6-8-8-8-8-8-8-6-6-6-6-6-6-6-6-6-6-6-6---
E--4-4-4-4-6-6-6-6-6-6---------------------------

bridge
E-----------------------------------------------------
B-----------------------------------------------------
G--8-8-8-8-8-8-8-8-8---------------------------------- x4
D--8-8-8-8-8-8-8-8-8-10-8-6-6-6-6-6-6-6-6-6-6-6-6-6---
A--6-6-6-6-6-6-6-6-6-10-8-6-6-6-6-6-6-6-6-6-6-6-6-6---
E--------------------8--6-4-4-4-4-4-4-4-4-4-4-4-4-4---

E--x-x-x-x-x-x-x-x-x-x-x---
B--x-x-x-x-x-x-x-x-x-x-x---
G--x-x-x-x-x-x-x-x-x-x-x---
D--x-x-x-x-x-x-x-x-x-x-x---
A--x-x-x-x-x-x-x-x-x-x-x---
E--x-x-x-x-x-x-x-x-x-x-x---

chorus
E--------------------------------------------------
B--------------------------------------------------
G--5-5-5-5-5-5-5-----8-8-8-8-8-8-8-8-8-8-8-8-8-8--- x3
D--5-5-5-5-5-5-5-6-6-8-8-8-8-8-8-8-8-8-8-8-8-8-8---
A--3-3-3-3-3-3-3-6-6-6-6-6-6-6-6-6-6-6-6-6-6-6-6---
E----------------4-4-------------------------------

E------------------------------------------------
B------------------------------------------------
G----------------------8-8-8-8-8-8-8-8-8-8-8-8---
D--6-6-6-6-8-8-8-8-8-8-8-8-8-8-8-8-8-8-8-8-8-8---
A--6-6-6-6-8-8-8-8-8-8-6-6-6-6-6-6-6-6-6-6-6-6---
E--4-4-4-4-6-6-6-6-6-6---------------------------

14. Hitchin’ A Ride

Intro (Violin Part)
E-----------------------------
B-----------------------------
G-----------------------------
D----------4--6-4-3-----------
A------4h6----------4h6p4-2---
E--4h6------------------------

Verse
E---------------------------
B---------------------------
G---------------------------
D--9-9--7-7--6-6--5-5-5-5---
A--9-9--7-7--6-6--5-5-5-5---
E--7-7--5-5--4-4--3-3-3-3---
some of it is palm muted so listen to the song and figure it out yourself

Chorus
E-------------------------------------------------------------------------
B-------------------------------------------------------------------------
G-------------------------------------------------------------------------
D--2-2-2-2-2-2-4-4-4-4-4-4-9-9-7-7-6-6-5-5-5-5--2-2-2-2-2-2-4-4-4-4-4-4---
A--2-2-2-2-2-2-4-4-4-4-4-4-9-9-7-7-6-6-5-5-5-5--2-2-2-2-2-2-4-4-4-4-4-4---
E--0-0-0-0-0-0-2-2-2-2-2-2-7-7-5-5-4-4-3-3-3-3--0-0-0-0-0-0-2-2-2-2-2-2---

Solo (there are 2 guitar tracks in the solo)
Guitar Track I
E--------------------------------------------------------
B--------------------------------------------------------
G-------------------------------------------------------- x4
D--9-9-12-12-12-12-11-11-9-9-12-12-12-12-11-11-----------
A--9-9-12-12-10-10-9--9--9-9-12-12-10-10-9--9------------
E--7-7-10-10-------------7-7-10-10-----------------------



Guitar Track II
E----------------------------------------------------------------
B----------------------------------------------------------------
G----------------------------------------------------------------
D--9-9-9-9-9-9-9-9-9-9-9-9-12-12-12-12-12-12-12-12-12-12-12-12---
A--x-x-x-x-x-x-x-x-x-x-x-x-x--x--x--x--x--x--x--x--x--x--x--x----
E--7-7-7-7-7-7-7-7-7-7-7-7-10-10-10-10-10-10-10-10-10-10-10-10---

E----------------------------------------------------
B----------------------------------------------------
G----------------------------------------------------
D--9-9-9-9-9-9-9-9-9-9-9-9-5-5-5-5-5-5-4-4-4-4-4-4---
A--x-x-x-x-x-x-x-x-x-x-x-x-x-x-x-x-x-x-x-x-x-x-x-x---
E--7-7-7-7-7-7-7-7-7-7-7-7-3-3-3-3-3-3-2-2-2-2-2-2---

E-----------------------------------------------------------------------
B-----------------------------------------------------------------------
G-----------------------------------------------------------------------
D--9-9-9-9-9-9-9-9-9-9-9-9-12-12-12-12-12-12-12-12-12-12-12-12--12/20---
A--x-x-x-x-x-x-x-x-x-x-x-x-x--x--x--x--x--x--x--x--x--x--x--x---x---x---
E--7-7-7-7-7-7-7-7-7-7-7-7-10-10-10-10-10-10-10-10-10-10-10-10--10/18---

E--------------------------------------------------------------
B--------------------------------------------------------------
G--9-7-4-7--9-7-4-7--9-7-4-7--4-7-4-7--4-7-9-7--4-7-9-7--7/19------
D--x-x-x-x--x-x-x-x--x-x-x-x--x-x-x-x--x-x-x-x--x-x-x-x--x-x-----
A--7-5-2-5--7-5-2-5--7-5-2-5--2-5-2-5--2-5-7-5--2-5-7-5--5/17------
E--------------------------------------------------------------

Chorus
E-------------------------------------------------------------------------
B-------------------------------------------------------------------------
G-------------------------------------------------------------------------
D--2-2-2-2-2-2-4-4-4-4-4-4-9-9-7-7-6-6-5-5-5-5--2-2-2-2-2-2-4-4-4-4-4-4---
A--2-2-2-2-2-2-4-4-4-4-4-4-9-9-7-7-6-6-5-5-5-5--2-2-2-2-2-2-4-4-4-4-4-4---
E--0-0-0-0-0-0-2-2-2-2-2-2-7-7-5-5-4-4-3-3-3-3--0-0-0-0-0-0-2-2-2-2-2-2---

Outro
Guitar Track I
E--------------------------------------------------------
B--------------------------------------------------------
G-------------------------------------------------------- x4
D--9-9-12-12-12-12-11-11-9-9-12-12-12-12-11-11-----------
A--9-9-12-12-10-10-9--9--9-9-12-12-10-10-9--9------------
E--7-7-10-10-------------7-7-10-10-----------------------

Guitar Track II
E----------------------------------------------------------------
B----------------------------------------------------------------
G----------------------------------------------------------------
D--9-9-9-9-9-9-9-9-9-9-9-9-12-12-12-12-12-12-12-12-12-12-12-12---
A--x-x-x-x-x-x-x-x-x-x-x-x-x--x--x--x--x--x--x--x--x--x--x--x----
E--7-7-7-7-7-7-7-7-7-7-7-7-10-10-10-10-10-10-10-10-10-10-10-10---

E----------------------------------------------------
B----------------------------------------------------
G----------------------------------------------------
D--9-9-9-9-9-9-9-9-9-9-9-9-5-5-5-5-5-5-4-4-4-4-4-4---
A--x-x-x-x-x-x-x-x-x-x-x-x-x-x-x-x-x-x-x-x-x-x-x-x---
E--7-7-7-7-7-7-7-7-7-7-7-7-3-3-3-3-3-3-2-2-2-2-2-2---

E-----------------------------------------------------------------------
B-----------------------------------------------------------------------
G-----------------------------------------------------------------------
D--9-9-9-9-9-9-9-9-9-9-9-9-12-12-12-12-12-12-12-12-12-12-12-12--12/20---
A--x-x-x-x-x-x-x-x-x-x-x-x-x--x--x--x--x--x--x--x--x--x--x--x---x---x---
E--7-7-7-7-7-7-7-7-7-7-7-7-10-10-10-10-10-10-10-10-10-10-10-10--10/18---

E--4---
B--4---
G--6---
D--6---
A--4---
E------

15. Good Riddance (Time Of Your Life)

Intro
E--------------------
B--------------------
G------0-------0-----
D--------0-------0---
A--------------------
E--3-3-----3-3-------

Verse
E------------------------------------------------
B----3---------3-----------3-----------3---------
G------0---0-----0---0-------0---0-2-2---2---2--- play that a couple of times
D--0-----0---0-----0-----------0---0-0-----0-----
A--x---------x---------3-3-----------------------
E--3---------3-----------------------------------

“so make the best...”
E----------------------------------------------------
B------0-----------3-----------1-----------3---------
G--------0---0-2-2---2---2-------0---0-------0---0---
D--2-2-----0---0-0-----0---2-2-----2---0-0-----0-----
A--2-2---------------------3-3---------x-x-----------
E--0-0---------------------------------3-3-----------

“it‘s not a question but...”
E----------------------------------------------------
B------0-----------3-----------1-----------3---------
G--------0---0-2-2---2---2-------0---0-------0---0---
D--2-2-----0---0-0-----0---2-2-----2---0-0-----0-----
A--2-2---------------------3-3---------x-x-----------
E--0-0---------------------------------3-3-----------

“it’s something unpredictable...”
E----------------------------------------------------------------------------
B------0-----------3-----------0-----------3-----------0-----------3---------
G--------0---0-------0---0-------0---0-------0---0-------0---0-2-2---2---0---
D--2-2-----0---0-0-----0---2-2-----0---0-0-----0---2-2-----0---0-0-----0-----
A--2-2---------x-x---------2-2---------x-x---------2-2-----------------------
E--0-0---------3-3---------0-0---------3-3---------0-0-----------------------

“so take the photographs...”
E--x-x-x-x-x-x-x-x-x-x-x-x-x-x-x---
B--3-3-3-3-3-3-3-3-3-3-3-3-3-3-3---
G--0-0-0-0-0-0-0-0-0-2-2-2-2-2-2--- play couple times
D--0-0-0-0-0-0-x-x-x-0-0-0-0-0-0---
A--x-x-x-x-x-x-3-3-3-0-0-0-0-0-0---
E--3-3-3-3-3-3---------------------

“tattoos of memories...”
E--0-0-0-x-x-x-x-x-x-0-0-0-x-x-x-x-x-x-x---
B--0-0-0-3-3-3-3-3-3-1-1-1-3-3-3-3-3-3-3---
G--0-0-0-2-2-2-2-2-2-0-0-0-0-0-0-0-0-0-0---
D--2-2-2-0-0-0-0-0-0-2-2-2-0-0-0-0-0-0-0---
A--2-2-2-0-0-0-0-0-0-3-3-3-x-x-x-x-x-x-x---
E--0-0-0-------------------3-3-3-3-3-3-3---

“for what it‘s worth...”
E--0-0-0-x-x-x-x-x-x-0-0-0-x-x-x-x-x-x-x---
B--0-0-0-3-3-3-3-3-3-1-1-1-3-3-3-3-3-3-3---
G--0-0-0-2-2-2-2-2-2-0-0-0-0-0-0-0-0-0-0---
D--2-2-2-0-0-0-0-0-0-2-2-2-0-0-0-0-0-0-0---
A--2-2-2-0-0-0-0-0-0-3-3-3-x-x-x-x-x-x-x---
E--0-0-0-------------------3-3-3-3-3-3-3---

“it’s something unpredictable...”
E--0-0-0-0-x-x-x-x-0-0-0-0-x-x-x-x-0-0-0-0-x-x-x-x---
B--0-0-0-0-3-3-3-3-0-0-0-0-3-3-3-3-0-0-0-0-3-3-3-3---
G--0-0-0-0-0-0-0-0-0-0-0-0-0-0-0-0-0-0-0-0-2-2-2-2---
D--2-2-2-2-0-0-0-0-2-2-2-2-0-0-0-0-2-2-2-2-0-0-0-0---
A--2-2-2-2-x-x-x-x-2-2-2-2-x-x-x-x-2-2-2-2-0-0-0-0---
E--0-0-0-0-3-3-3-3-0-0-0-0-3-3-3-3-0-0-0-0-----------

E--x-x-x-x-x-x-x-x-x-x-x-x-x-x-x---
B--3-3-3-3-3-3-3-3-3-3-3-3-3-3-3---
G--0-0-0-0-0-0-0-0-0-2-2-2-2-2-2--- play couple times
D--0-0-0-0-0-0-x-x-x-0-0-0-0-0-0---
A--x-x-x-x-x-x-3-3-3-0-0-0-0-0-0---
E--3-3-3-3-3-3---------------------

E--0-0-0-x-x-x-x-x-x-0-0-0-x-x-x-x-x-x-x---
B--0-0-0-3-3-3-3-3-3-1-1-1-3-3-3-3-3-3-3---
G--0-0-0-2-2-2-2-2-2-0-0-0-0-0-0-0-0-0-0---
D--2-2-2-0-0-0-0-0-0-2-2-2-0-0-0-0-0-0-0---
A--2-2-2-0-0-0-0-0-0-3-3-3-x-x-x-x-x-x-x---
E--0-0-0-------------------3-3-3-3-3-3-3---

E--0-0-0-x-x-x-x-x-x-0-0-0-x-x-x-x-x-x-x---
B--0-0-0-3-3-3-3-3-3-1-1-1-3-3-3-3-3-3-3---
G--0-0-0-2-2-2-2-2-2-0-0-0-0-0-0-0-0-0-0---
D--2-2-2-0-0-0-0-0-0-2-2-2-0-0-0-0-0-0-0---
A--2-2-2-0-0-0-0-0-0-3-3-3-x-x-x-x-x-x-x---
E--0-0-0-------------------3-3-3-3-3-3-3---

E--0-0-0-0-x-x-x-x-0-0-0-0-x-x-x-x-0-0-0-0-x-x-x-x---
B--0-0-0-0-3-3-3-3-0-0-0-0-3-3-3-3-0-0-0-0-3-3-3-3---
G--0-0-0-0-0-0-0-0-0-0-0-0-0-0-0-0-0-0-0-0-2-2-2-2---
D--2-2-2-2-0-0-0-0-2-2-2-2-0-0-0-0-2-2-2-2-0-0-0-0---
A--2-2-2-2-x-x-x-x-2-2-2-2-x-x-x-x-2-2-2-2-0-0-0-0---
E--0-0-0-0-3-3-3-3-0-0-0-0-3-3-3-3-0-0-0-0-----------

E--x-x-x-x-x-x-x-x-x-x-x-x-x-x-x---
B--3-3-3-3-3-3-3-3-3-3-3-3-3-3-3---
G--0-0-0-0-0-0-0-0-0-2-2-2-2-2-2--- play couple times
D--0-0-0-0-0-0-x-x-x-0-0-0-0-0-0---
A--x-x-x-x-x-x-3-3-3-0-0-0-0-0-0---
E--3-3-3-3-3-3---------------------

“it’s something unpredictable...”
E----------------------------------------------------------------------------
B------0-----------3-----------0-----------3-----------0-----------3---------
G--------0---0-------0---0-------0---0-------0---0-------0---0-2-2---2---0---
D--2-2-----0---0-0-----0---2-2-----0---0-0-----0---2-2-----0---0-0-----0-----
A--2-2---------x-x---------2-2---------x-x---------2-2-----------------------
E--0-0---------3-3---------0-0---------3-3---------0-0-----------------------

E------------------------------------------------
B----3---------3-----------3-----------3---------
G------0---0-----0---0-------0---0-2-2---2---2---
D--0-----0---0-----0-----------0---0-0-----0-----
A--x---------x---------3-3-----------------------
E--3---------3-----------------------------------

E----------------------------------------------x---
B----3---------3-----------3-----------3-------3---
G------0---0-----0---0-------0---0-2-2---2-2---0--- 
D--0-----0---0-----0-----------0---0-0-------0-0---
A--x---------x---------3-3---------------------x---
E--3---------3---------------------------------3---

16. Redundant

intro
E----------------------------------------------------------------------
B----2---------2---------2---------------------------------------------
G------2---------2---------2-------------------------4-4-4-4-4-4-4-4---
D----------------------------------4-4-4-4-4-4-4-4-4-4-4-4-4-4-4-4-4---
A----------------------------------4-4-4-4-4-4-4-4-4-2-2-2-2-2-2-2-2---
E--5-----4h5-4-----3h4-3-----3-3-0-2-2-2-2-2-2-2-2-2-------------------

E------------------------------------------------
B------------------------------------------------
G--7-7-7-7-7-7-7-7-------------------------9-9---
D--7-7-7-7-7-7-7-7-7-7-7-7-7-7-7-7-7-7-7-7-9-9---
A--5-5-5-5-5-5-5-5-7-7-7-7-7-7-7-7-7-7-7-7-7-7---
E------------------5-5-5-5-5-5-5-5-5-5-5-5-------

verse
E------------------------------------------------------------------
B------------------------------------------------------------------
G------------------7-7-7-7-7-7-7-7-------------7-------------------
D--7-7-7-7-7-7-7-7-7-7-7-7-7-7-7-7-7-7-7-7-7-7-7-7-7-7-7-7-7-7-7---
A--7-7-7-7-7-7-7-7-5-5-5-5-5-5-5-5-7-7-7-7-7-7-5-7-7-7-7-7-7-7-7---
E--5-5-5-5-5-5-5-5-----------------5-5-5-5-5-5---5-5-5-5-5-5-5-5---

E----------------------------------------------------------------
B----------------------------------------------------------------
G------------------7-7-7-7-7-7-7-7-------------------------------
D--7-7-7-7-7-7-7-7-7-7-7-7-7-7-7-7-2-2-2-2-2-2-2-2-2-2-2-2-5-5---
A--7-7-7-7-7-7-7-7-5-5-5-5-5-5-5-5-2-2-2-2-2-2-2-2-2-2-2-2-5-5---
E--5-5-5-5-5-5-5-5-----------------0-0-0-0-0-0-0-0-0-0-0-0-3-3---

E------------------------------------------------------------------
B------------------------------------------------------------------
G------------------7-7-7-7-7-7-7-7-------------7-------------------
D--7-7-7-7-7-7-7-7-7-7-7-7-7-7-7-7-7-7-7-7-7-7-7-7-7-7-7-7-7-7-7---
A--7-7-7-7-7-7-7-7-5-5-5-5-5-5-5-5-7-7-7-7-7-7-5-7-7-7-7-7-7-7-7---
E--5-5-5-5-5-5-5-5-----------------5-5-5-5-5-5---5-5-5-5-5-5-5-5---

E--------------------------------------------------------------------
B--------------------------------------------------------------------
G------------------7-7-7-7-7-7-7-7-----------------------------------
D--7-7-7-7-7-7-7-7-7-7-7-7-7-7-7-7-2-2-2-2-2-2-2-2-2-2-2-2-2-2-2-2---
A--7-7-7-7-7-7-7-7-5-5-5-5-5-5-5-5-2-2-2-2-2-2-2-2-2-2-2-2-2-2-2-2---
E--5-5-5-5-5-5-5-5-----------------0-0-0-0-0-0-0-0-0-0-0-0-0-0-0-0---

chorus
E--------------------------------------------------------------------
B----------(2)-------------(2)-------------(2)-----------------------
G-------------(2)-------------(2)-------------(2)--------------------
D--7-7-7-7-7-7-7-7-6-6-6-6-6-6-6-6-5-5-5-5-5-5-5-5-4-4-4-4-4-4-4-4---
A--7-7-7-7-7-7-7-7-6-6-6-6-6-6-6-6-5-5-5-5-5-5-5-5-4-4-4-4-4-4-4-4---
E--5-5-5-5-5-5-5-5-4-4-4-4-4-4-4-4-3-3-3-3-3-3-3-3-2-2-2-2-2-2-2-2---

E----------------------------------------------------------------
B----------------------------------------------------------------
G--4-4-4-4-4-4-4-4-7-7-7-7-7-7-7-7-------------------------9-9---
D--4-4-4-4-4-4-4-4-7-7-7-7-7-7-7-7-7-7-7-7-7-7-7-7-7-7-7-7-9-9---
A--2-2-2-2-2-2-2-2-5-5-5-5-5-5-5-5-7-7-7-7-7-7-7-7-7-7-7-7-7-7---
E----------------------------------5-5-5-5-5-5-5-5-5-5-5-5-------

verse
E------------------------------------------------------------------
B------------------------------------------------------------------
G------------------7-7-7-7-7-7-7-7-------------7-------------------
D--7-7-7-7-7-7-7-7-7-7-7-7-7-7-7-7-7-7-7-7-7-7-7-7-7-7-7-7-7-7-7---
A--7-7-7-7-7-7-7-7-5-5-5-5-5-5-5-5-7-7-7-7-7-7-5-7-7-7-7-7-7-7-7---
E--5-5-5-5-5-5-5-5-----------------5-5-5-5-5-5---5-5-5-5-5-5-5-5---

E----------------------------------------------------------------
B----------------------------------------------------------------
G------------------7-7-7-7-7-7-7-7-------------------------------
D--7-7-7-7-7-7-7-7-7-7-7-7-7-7-7-7-2-2-2-2-2-2-2-2-2-2-2-2-5-5---
A--7-7-7-7-7-7-7-7-5-5-5-5-5-5-5-5-2-2-2-2-2-2-2-2-2-2-2-2-5-5---
E--5-5-5-5-5-5-5-5-----------------0-0-0-0-0-0-0-0-0-0-0-0-3-3---

E------------------------------------------------------------------
B------------------------------------------------------------------
G------------------7-7-7-7-7-7-7-7-------------7-------------------
D--7-7-7-7-7-7-7-7-7-7-7-7-7-7-7-7-7-7-7-7-7-7-7-7-7-7-7-7-7-7-7---
A--7-7-7-7-7-7-7-7-5-5-5-5-5-5-5-5-7-7-7-7-7-7-5-7-7-7-7-7-7-7-7---
E--5-5-5-5-5-5-5-5-----------------5-5-5-5-5-5---5-5-5-5-5-5-5-5---

E--------------------------------------------------------------------
B--------------------------------------------------------------------
G------------------7-7-7-7-7-7-7-7-----------------------------------
D--7-7-7-7-7-7-7-7-7-7-7-7-7-7-7-7-2-2-2-2-2-2-2-2-2-2-2-2-2-2-2-2---
A--7-7-7-7-7-7-7-7-5-5-5-5-5-5-5-5-2-2-2-2-2-2-2-2-2-2-2-2-2-2-2-2---
E--5-5-5-5-5-5-5-5-----------------0-0-0-0-0-0-0-0-0-0-0-0-0-0-0-0---

chorus
E--------------------------------------------------------------------
B----------(2)-------------(2)-------------(2)-----------------------
G-------------(2)-------------(2)-------------(2)--------------------
D--7-7-7-7-7-7-7-7-6-6-6-6-6-6-6-6-5-5-5-5-5-5-5-5-4-4-4-4-4-4-4-4---
A--7-7-7-7-7-7-7-7-6-6-6-6-6-6-6-6-5-5-5-5-5-5-5-5-4-4-4-4-4-4-4-4---
E--5-5-5-5-5-5-5-5-4-4-4-4-4-4-4-4-3-3-3-3-3-3-3-3-2-2-2-2-2-2-2-2---

E----------------------------------------------------------------
B----------------------------------------------------------------
G--4-4-4-4-4-4-4-4-7-7-7-7-7-7-7-7-------------------------9-9---
D--4-4-4-4-4-4-4-4-7-7-7-7-7-7-7-7-7-7-7-7-7-7-7-7-7-7-7-7-9-9---
A--2-2-2-2-2-2-2-2-5-5-5-5-5-5-5-5-7-7-7-7-7-7-7-7-7-7-7-7-7-7---
E----------------------------------5-5-5-5-5-5-5-5-5-5-5-5-------

solo
E------------2-------------5-------------2---------5-------
B--------2-------------5-------------2---3-----------5----- \ 
G----------2---2-----2---5---5---------2-2-------------5---   \
D------0-----------2---------------0-----------0-2---------     \
A--0-4-----------2-------------0-4---------0-4-------------
E----------------------------------------------------------       x2

E----------2-----------------------------------------------     /
B--------2---2---------3-----------------------------------   /
G--------------2-----2---2--------------------------------- /
D------0-----------2-------2-2-2-2-2-2-2-2-2-2-2-2-2-5-5---
A--0-4-----------2-----------2-2-2-2-2-2-2-2-2-2-2-2-5-5---
E----------------------------0-0-0-0-0-0-0-0-0-0-0-0-3-3---

chorus
E--------------------------------------------------------------------
B----------(2)-------------(2)-------------(2)-----------------------
G-------------(2)-------------(2)-------------(2)--------------------
D--7-7-7-7-7-7-7-7-6-6-6-6-6-6-6-6-5-5-5-5-5-5-5-5-4-4-4-4-4-4-4-4---
A--7-7-7-7-7-7-7-7-6-6-6-6-6-6-6-6-5-5-5-5-5-5-5-5-4-4-4-4-4-4-4-4---
E--5-5-5-5-5-5-5-5-4-4-4-4-4-4-4-4-3-3-3-3-3-3-3-3-2-2-2-2-2-2-2-2---

E----------------------------------------------------------------
B----------------------------------------------------------------
G--4-4-4-4-4-4-4-4-7-7-7-7-7-7-7-7-------------------------9-9---
D--4-4-4-4-4-4-4-4-7-7-7-7-7-7-7-7-7-7-7-7-7-7-7-7-7-7-7-7-9-9---
A--2-2-2-2-2-2-2-2-5-5-5-5-5-5-5-5-7-7-7-7-7-7-7-7-7-7-7-7-7-7---
E----------------------------------5-5-5-5-5-5-5-5-5-5-5-5-------

outro
E--------------------------------------
B----2---------2---------2-------------
G------2---------2---------2-----------
D--------------------------------------
A--------------------------------------
E--5-----4h5-4-----3h4-3-----3-3p0-2---

17. Nice Guys Finish Last

intro- just scratch about 16 times, then....       the last time
E----------------------------------------------------|--------------------
B----------------------------------------------------|--------------------
G----9-9-9-9-9---------------9-9-9-9-9---------------|--------------------
D--7-9-9-9-9-9-7-9-9-9-9-9-7-9-9-9-9-9-7-9-9-9-9-9-7-|--7-9-9-9-9-9-7-2---
A--7-7-7-7-7-7-7-9-9-9-9-9-7-7-7-7-7-7-7-9-9-9-9-9-7-|--7-9-9-9-9-9-7-2---
E--5-----------5-7-7-7-7-7-5-----------5-7-7-7-7-7-5-|--5-7-7-7-7-7-5-0---

verse
E------------------------------------------------------------------------------
B------------------------------------------------------------------------------
G----9---------9-9-9-9-9-9-9-9-9-9-9-----------------------9-9-9-9-9-9-9-9-9---
D--7-9-------7-9-9-9-9-9-9-9-9-9-9-9-9-9-9-9-9-9-9-9-9-9-7-9-9-9-9-9-9-9-9-9---
A--7-7-------7-7-7-7-7-7-7-7-7-7-7-7-9-9-9-9-9-9-9-9-9-9-7-7-7-7-7-7-7-7-7-7---
E--5---------5-----------------------7-7-7-7-7-7-7-7-7-7-5---------------------
                 p p p p p p p p p p p p p p p p p p p p
chorus
“pressure cooker pick my brain...”
E--------------------------------------------------------------------
B--------------------------------------------------------------------
G------------------9-9-9-9-9-9-9-9-----------------9-9-9-9-9-9-9-9---
D--7-7-7-7-7-7-7-7-9-9-9-9-9-9-9-9-7-7-7-7-7-7-7-7-9-9-9-9-9-9-9-9---
A--7-7-7-7-7-7-7-7-7-7-7-7-7-7-7-7-7-7-7-7-7-7-7-7-7-7-7-7-7-7-7-7---
E--5-5-5-5-5-5-5-5-----------------5-5-5-5-5-5-5-5-------------------

“every joke can have it’s truth...”
E--------------------------------------------------------------------
B--------------------------------------------------------------------
G------------------9-9-9-9-9-9-9-9-----------------4-4-4-4-4-4-4-4---
D--7-7-7-7-7-7-7-7-9-9-9-9-9-9-9-9-4-4-4-4-4-4-4-4-4-4-4-4-4-4-4-4---
A--7-7-7-7-7-7-7-7-7-7-7-7-7-7-7-7-4-4-4-4-4-4-4-4-2-2-2-2-2-2-2-2---
E--5-5-5-5-5-5-5-5-----------------2-2-2-2-2-2-2-2-------------------

“oh nice guys finish last...”
E--------------------------------------------------------------------------------
B--------------------------------------------------------------------------------
G----------2-2-2-2-2-2---------2-2-2-2-2-2---------2-2-2-2-2-2-4-4-4-4-4-4-4-4---
D--2-2-2-2-2-2-2-2-2-2-2-2-2-2-2-2-2-2-2-2-2-2-2-2-2-2-2-2-2-2-4-4-4-4-4-4-4-4---
A--2-2-2-2-0-0-0-0-0-0-2-2-2-2-0-0-0-0-0-0-2-2-2-2-0-0-0-0-0-0-2-2-2-2-2-2-2-2---
E--0-0-0-0-------------0-0-0-0-------------0-0-0-0-------------------------------

verse
E--------------------------------------------------------------------
B--------------------------------------------------------------------
G----9-9-9-9-9-9-9-9-9-9-9-9-----------------------9-9-9-9-9-9-9-9-9-
D--7-9-9-9-9-9-9-9-9-9-9-9-9-9-9-9-9-9-9-9-9-9-7-9-9-9-9-9-9-9-9-9---
A--7-7-7-7-7-7-7-7-7-7-7-7-9-9-9-9-9-9-9-9-9-9-7-7-7-7-7-7-7-7-7-7---
E--5-----------------------7-7-7-7-7-7-7-7-7-7-5---------------------
       p p p p p p p p p p p p p p p p p p p p
chorus
“pressure cooker pick my brain...”
E--------------------------------------------------------------------
B--------------------------------------------------------------------
G------------------9-9-9-9-9-9-9-9-----------------9-9-9-9-9-9-9-9---
D--7-7-7-7-7-7-7-7-9-9-9-9-9-9-9-9-7-7-7-7-7-7-7-7-9-9-9-9-9-9-9-9---
A--7-7-7-7-7-7-7-7-7-7-7-7-7-7-7-7-7-7-7-7-7-7-7-7-7-7-7-7-7-7-7-7---
E--5-5-5-5-5-5-5-5-----------------5-5-5-5-5-5-5-5-------------------

“every joke can have it’s truth...”
E--------------------------------------------------------------------
B--------------------------------------------------------------------
G------------------9-9-9-9-9-9-9-9-----------------4-4-4-4-4-4-4-4---
D--7-7-7-7-7-7-7-7-9-9-9-9-9-9-9-9-4-4-4-4-4-4-4-4-4-4-4-4-4-4-4-4---
A--7-7-7-7-7-7-7-7-7-7-7-7-7-7-7-7-4-4-4-4-4-4-4-4-2-2-2-2-2-2-2-2---
E--5-5-5-5-5-5-5-5-----------------2-2-2-2-2-2-2-2-------------------

“oh nice guys finish last...”
E--------------------------------------------------------------------------------
B--------------------------------------------------------------------------------
G----------2-2-2-2-2-2---------2-2-2-2-2-2---------2-2-2-2-2-2-4-4-4-4-4-4-4-4---
D--2-2-2-2-2-2-2-2-2-2-2-2-2-2-2-2-2-2-2-2-2-2-2-2-2-2-2-2-2-2-4-4-4-4-4-4-4-4---
A--2-2-2-2-0-0-0-0-0-0-2-2-2-2-0-0-0-0-0-0-2-2-2-2-0-0-0-0-0-0-2-2-2-2-2-2-2-2---
E--0-0-0-0-------------0-0-0-0-------------0-0-0-0-------------------------------

bridge
E----------------------------------------------------------------------------
B----------------------------------------------------------------------------
G----9-9-9-9-9---------------9-9-9-9-9---------------9-9-9-9-9---------------
D--7-9-9-9-9-9-7-9-9-9-9-9-7-9-9-9-9-9-7-9-9-9-9-9-7-9-9-9-9-9-7-9-9-9-9-9---
A--7-7-7-7-7-7-7-9-9-9-9-9-7-7-7-7-7-7-7-9-9-9-9-9-7-7-7-7-7-7-7-9-9-9-9-9---
E--5-----------5-7-7-7-7-7-5-----------5-7-7-7-7-7-5-----------5-7-7-7-7-7---

E----------------------------------------------------------------
B----------------------------------------------------------------
G----9-9-9-9-9---------------------------------------------------
D--7-9-9-9-9-9-7-4-4-4-4-4-7-9-9-9-9-9-9-9-9-9-9-9-9-9-9-9-9-9---
A--7-7-7-7-7-7-7-4-4-4-4-4-7-9-9-9-9-9-9-9-9-9-9-9-9-9-9-9-9-9---
E--5-----------5-2-2-2-2-2-5-7-7-7-7-7-7-7-7-7-7-7-7-7-7-7-7-7---

chorus
“oh nice guys finish last...”
E--------------------------------------------------------------------------------
B--------------------------------------------------------------------------------
G----------2-2-2-2-2-2---------2-2-2-2-2-2---------2-2-2-2-2-2-4-4-4-4-4-4-4-4---
D--2-2-2-2-2-2-2-2-2-2-2-2-2-2-2-2-2-2-2-2-2-2-2-2-2-2-2-2-2-2-4-4-4-4-4-4-4-4---
A--2-2-2-2-0-0-0-0-0-0-2-2-2-2-0-0-0-0-0-0-2-2-2-2-0-0-0-0-0-0-2-2-2-2-2-2-2-2---
E--0-0-0-0-------------0-0-0-0-------------0-0-0-0-------------------------------

18. Minority
intro
E---------|---------|------0--|----------|----------|---------|-----------
B------1--|------3--|--1----1-|------1---|------1---|------3--|-----------
G---0---0-|---0---0-|----2----|--------0-|--------0-|---0---0-|-2-0---0---
D-----2---|----0----|-3-------|-0h2------|-0h2------|----0----|-3-2-0-2---
A--3------|---------|---------|-----3----|-----3----|---------|-------3---
E---------|-3-------|---------|----------|----------|-3-------|-----------

chorus
E----------------------------
B----------------------------
G--5555x---------------------
D--5555x-3333x-5555x-3333x---
A--3333x-3333x-5555x-3333x---
E--------1111x-3333x-1111x---
   
Verse   
   C  G5 Fmaj7  C  C G5  F  G
E------------------------1--3--- 
B--1--3---1-----1--1--3--1--3--- 
G--0--0---2-----0--0--0--2--0--- 
D--2--0---0-----2--2--0--3--0--- 
A--3--x---3-----3--3--x-----2--- 
E-----3---------------3-----3--- 
   C  G5 Fmaj7  C  C  F  G5 C
E---------------------1--------- 
B--1--3---1-----1--1--1--3--1--- 
G--0--0---2-----0--0--2--0--0--- 
D--2--0---0-----2--2--3--0--2--- 
A--3--x---3-----3--3-----x--3--- 
E-----3------------------3------ 

chorus
E----------------------------
B----------------------------
G--5555x---------------------
D--5555x-3333x-5555x-3333x---
A--3333x-3333x-5555x-3333x---
E--------1111x-3333x-1111x---

“stepped out of the line”
E-------------------------------------------------
B-------------------------------------------------
G----------99-10101010-5555-----------------------
D--7777777-99-10101010-5555-7777777-2-3333-5555---
A--7777777-77-8-8-8-8--3333-7777777-2-3333-5555---
E--5555555------------------5555555-0-1111-3333---
“marching out of time”
E-------------------------------------------------------------
B-------------------------------------------------------------
G----------99-10101010-5555-----------------------------------
D--7777777-99-10101010-5555-7777777-33-55-xxx-55-xxx-555555---
A--7777777-77-8-8-8-8--3333-7777777-33-55-xxx-55-xxx-555555---
E--5555555------------------5555555-11-33-xxx-33-xxx-333333---

Verse   
   C  G5 Fmaj7  C  C G5  F  G
E------------------------1--3--- 
B--1--3---1-----1--1--3--1--3--- 
G--0--0---2-----0--0--0--2--0--- 
D--2--0---0-----2--2--0--3--0--- 
A--3--x---3-----3--3--x-----2--- 
E-----3---------------3-----3--- 
   C  G5 Fmaj7  C  C  F  G5 C
E---------------------1--------- 
B--1--3---1-----1--1--1--3--1--- 
G--0--0---2-----0--0--2--0--0--- 
D--2--0---0-----2--2--3--0--2--- 
A--3--x---3-----3--3---





Comments


Popular Green Day tabs & chords
Blood, Sex & Booze Bass Tabs
Give Me Novacaine Bass Tabs
Amy 3 Chords
Body Odor Tabs
Dont Wanna Fall In Love 2 Tabs
Give Me Novacaine 9 Tabs
Going To Pasalacqua 1 Tabs
One For The Razorbacks 1 Tabs
Prosthetic Head  1 Tabs
Superman Tabs


Song lyrics



↑ Back to top | Tablatures and chords are parodies/interpretations of the original songs. You may use it for private study, scholarship, research or language learning purposes only
© 2014 AZChords.com Contact us | Privacy policy | DMCA | Add/correct tabs | Request tabs | Top 50 tabs