» » »

Favorite Son Tabs (ver.2)

Artists:  A B C D E F G H I J K L M N O P Q R S T U V W X Y Z # 

Favorite Son Tabs (ver.2)

Green Day
Rating:
0/5 (0 votes)

Hard to play? Try these video lessons and learn fast.
                Green Day-Favorite Son

-standard tuning
-distortion throught the whole thing
-~~~=vibrato
-*=palm mute

Verse/main riff: (he hit the ground running...)
|----------------------------------------------|
|----------------------------------------------|
|-------------------10-10--8-8-5-5-5-5-5-5-5-5-|
|-66-666-666-66666--10-10--8-8-5-5-5-5-5-5-5-5-|
|-66-666-666-66666---8--8--6-6-3-3-3-3-3-3-3-3-|
|-44-444-444-44444-----------------------------|



Chorus: (its your favorite son...)
|-------------------------|
|-------------------------|
|-6-6-5-5-----------------|
|-6-6-5-5-8-8-8-8-8-8-8-8-|
|-4-4-3-3-8-8-8-8-8-8-8-8-|
|---------6-6-6-6-6-6-6-6-|


bridge thingy: (but isnt it a drag...)
|-----------------------------------------------------|
|-----------------------------------------------------|
|-----------------------------------------------------|
|-3333333333333333-6666666666666666-33333333-88888888-|
|-3333333333333333-6666666666666666-33333333-88888888-|
|-1111111111111111-4444444444444444-11111111-66666666-|
        (only play 886 at 1:16 )
|-------------------|
|-------------------|
|-33333333-88888888-|
|-33333333-88888888-|
|-11111111-66666666-|
|-------------------|



play this at 1:16: x2
|------------------------------------|
|------------------------------------|
|------------------------------------|
|-66-666-666-66666-3333333333333333/-|
|-66-666-666-66666-3333333333333333/-|slide back to 664
|-44-444-444-44444-1111111111111111/-|


Solo:
|----------------------------------|
|--------------------6-6-6-4~~~----|
|-6-6-5-5-5-3~~~-6-6---------------|
|----------------------------------|
|----------------------------------|
|----------------------------------|

interlude: 1:35-clean (well no one says its fair) 
|-6--6-6---------|
|-6--6-6---8-9-8-|
|-6--------8-8-8-|
|-8--------------|
|-8--------------|
|-6--------------|


(to give teenage lives to a millionair) distortion
|------------------------------------|
|------------------------------------|
|-3333333333333333----------88888888-|
|-3333333333333333-66666666-88888888-|
|-1111111111111111-66666666-66666666-|
|------------------44444444----------|
  ****************
(slowly letting off palm mute)


ya those are all the parts, order is obvious.
            
Hard to play? Try these video lessons and learn fast. | Correct




comments powered by Disqus
↑ Back to top | Tablatures and chords are parodies/interpretations of the original songs. You may use it for private study, scholarship, research or language learning purposes only