>
 >
Favorite Son

Favorite Son Guitar Tabs

Green Day - Favorite Son chords, tabs, tablatures, lyrics

Guitar lessons | Add/correct | Request | Top 50 tabs Artists:  A B C D E F G H I J K L M N O P Q R S T U V W X Y Z 0-9

Favorite Son Guitar Tabs – Green Day

CD, Sheet music, Poster

Do you like Favorite Son? Share with your friends now
Bass TabsChordsChords v2Chords v3TabsTabs v2Tabs v3
Music: Green Day

Standard Tuning (E A D G B E)

Intro/Verse:
   G#5 F5   x2
e|------------------|
B|------------------|
G|------------------|
D|-6---3------------| 
A|-6---3------------|
E|-4---1------------|

Chorus:
   C#5 G#5 D#5   x2
e|----------------------------------|
B|----------------------------------|
G|-6-------8------------------------|
D|-6---6---8------------------------|
A|-4---6---6------------------------|
E|-----4----------------------------|

Bridge:
   F5   G#5   F5   C#5 D#5 
e|----------------------------------|
B|----------------------------------|
G|-10---------10---6---8------------|
D|-10---6-----10---6---8------------|
A|-8----6-----8----4---6------------|
E|------4---------------------------|

Solo:
e|-----------------------------------|
B|-----------------------------------|
G|-----------------------------------|
D|-\6---5---3v---\6--\10---8v--------|
A|-----------------------------------|
E|-----------------------------------|

Interlude:
    A#m                      A#5   F#5 D#5
e|--6--(6-x)---------------------------------------|
B|--6--(6-x)---6--9--8-----------------------------|
G|--6----------6--8--8-----------------8-----------|
D|--8----------6-------------8-----4---8-----------|
A|--8------------------------8-----4---6-----------|
E|--6------------------------6-----2---------0-3---|
                             

Order:

Verse
Chorus
Verse
Chorus
Bridge
Verse
Chorus
Bridge
Verse (no lyrics)
Chorus w/ Solo (no lyrics)
Interlude
Verse
Chorus
End on G#5


Lyrics:

He hit the ground running
At the speed of light			(Verse 1)
The star was brightly shining
Like a neon light

It's your favorite son			(Chorus)
It's your favorite son

A fixture on the talkshows
To the silver screen			(Verse 2)
He's a sex machine

(Chorus)

But isn't it a drag?
Isn't it a drag?			(Bridge)
Isn't it a drag?
It's pretty bloody sad
But isn't it a drag?

A clean-cut all-American
Really ain't so clean			(Verse 3)
His royal auditorium
Is a murder scene

(Chorus)
(Bridge)

Well, no one says it's fair		
Turn a teenage lush			(Interlude)
To a millionaire

Now where's your fuckin' champion?
On a bed you laid			(Verse 4)
He's not the all-American
That you thought you paid

It's your favorite son
It's your favorite son
But isn't it a drag?

Legend:

h = hammer-on
p = pull-off
b = bend
/ = slide up
\ = slide down
v = vibrato


- reizig





Comments


Popular Green Day tabs & chords
I Wanna Be On T.V. Bass Tabs
409 In Your Coffeemaker Chords
Give Me Novacaine Chords
86  1 Tabs
Boulevard Of Broken Dreams 9 Tabs
East Jesus Nowhere 2 Tabs
Macy's Day Parade Tabs
Paper Laterns Tabs
Second Time Around Tabs
Waiting 1 Tabs


Song lyrics



↑ Back to top | Tablatures and chords are parodies/interpretations of the original songs. You may use it for private study, scholarship, research or language learning purposes only
© 2014 AZChords.com Contact us | Privacy policy | DMCA | Add/correct tabs | Request tabs | Top 50 tabs