» » »

Green Day, Espionage Tabs (ver.7)

Artists:  A B C D E F G H I J K L M N O P Q R S T U V W X Y Z # 

Espionage Tabs (ver.7)

Green Day Tabs
Rating:
0/5 (0 votes)
Espionage lessons Tabs too difficult? Try these video lessons and learn fast
                -------------------------
Green Day - Espoinage
-------------------------

Tuning: Standard 

~ - Let Ring


[Main Riff]

Guitar One:

E|-0~~~~~~~--|
B|-0~~~~~~~--|
G|-0~~~~~~~--|
D|-2~~~~~~~--|
A|-2~~~~~~~--|
E|-0~~~~~~~--|

E|--------------------------------------|
B|--------------------------------------|
G|--------------------------------------|
D|--------------------------------------|
A|-----------2-2----1--1-1--0---0-0-----|
E|-0-0--3-3------3------------3-----3-2-|

Guitar Two:

E|----------------------------------------|
B|----------------------------------------|
G|----------------------------------------|
D|----------------------------------------|
A|----------------------------------------|
E|-0-0--3-3--0-0--3-3--0-0--3-3--0-0--3-3-|


[Riff Variation]

Guitar One:

E|--------------------------------------|
B|--------------------------------------|
G|--------------------------------------|
D|-----------2-2---1--1-1--0---0-0------|
A|-0-0--3-3------3-----------3-----3-0--|
E|--------------------------------------|

Guitar Two:

E|----------------------------------------|
B|----------------------------------------|
G|----------------------------------------|
D|----------------------------------------|
A|-0-0--3-3--0-0--3-3--0-0--3-3--0-0--3-3-|
E|----------------------------------------|

[Bridge]

Guitar One:
                                x2
E|--------------------------------|
B|----4-44--4-4-4-----5-55--5-5-5-|
G|-4--4-44--4-4-4--5--5-55--5-5-5-|
D|-4--4-44--4-4-4--5--5-55--5-5-5-|
A|-2--2-22--2-2-2--3--3-33--3-3-3-|
E|--------------------------------|

E|----------------------------|-------------------------------------|
B|-4--4-4--4-44--4--4-4--4-44-|-5-5-5-5--5-5-5-5--8-8-8-8--8-8-8-8--|
G|-4--4-4--4-44--4--4-4--4-44-|-5-5-5-5--5-5-5-5--8-8-8-8--8-8-8-8--|
D|-4--4-4--4-44--4--4-4--4-44-|-5-5-5-5--5-5-5-5--8-8-8-8--8-8-8-8--|
A|-2--2-2--2-22--2--2-2--2-22-|-3-3-3-3--3-3-3-3--6-6-6-6--6-6-6-6--|
E|----------------------------|-------------------------------------|

Guitar Two:
                                   x2
E|-----------------------------------|
B|-----------------------------------|
G|-----------------------------------|
D|-------4-----------------5---------|
A|-2--2-----2--0-2---3--3-----3--5-3-|
E|-----------------------------------|

E|--------------------------------|-------------------------------------|
B|--------------------------------|-------------------------------------|
G|--------------------------------|-------------------------------------|
D|------4-------4-------4---------|-5-5-5-5--5-5-5-5--8-8-8-8--8-8-8-8--|
A|-2--2----2--2----2--2----2--0-2-|-3-3-3-3--3-3-3-3--6-6-6-6--6-6-6-6--|
E|--------------------------------|-------------------------------------|

[Solo]

Guitar One:
                                         x4
E|-10-10-10--9-9-9-8-8--7-7-7-7--7-7-7-7--|
B|--8--8--8--8-8-8-8-8--8-8-8-8--8-8-8-8--|
G|--9--9--9--9-9-9-9-9--9-9-9-9--9-9-9-9--|
D|----------------------------------------|
A|----------------------------------------|
E|----------------------------------------|

                                                      x2
E|-15-15-15--14-14-14-13-13--12-12-12-12--12-12-12-12--|
B|-13-13-13--13-13-13-13-13--13-13-13-13--13-13-13-13--|
G|-14-14-14--14-14-14-14-14--14-14-14-14--14-14-14-14--|
D|-----------------------------------------------------|
A|-----------------------------------------------------|
E|-----------------------------------------------------|

                                        x2
E|-10-10-10--9-9-9-8-8--7-7-7-7--7-7-7-7--|
B|--8--8--8--8-8-8-8-8--8-8-8-8--8-8-8-8--|
G|--9--9--9--9-9-9-9-9--9-9-9-9--9-9-9-9--|
D|----------------------------------------|
A|----------------------------------------|
E|----------------------------------------|

Guitar Two:
                                      x4
E|--------------------------------------|
B|--------------------------------------|
G|--------------------------------------|
D|--------------------------------------|
A|-----------2-2----1--1-1--0---0-0-----|
E|-0-0--3-3------3------------3-----3-2-|

                                     x2
E|--------------------------------------|
B|--------------------------------------|
G|--------------------------------------|
D|-----------2-2---1--1-1--0---0-0------|
A|-0-0--3-3------3-----------3-----3-0--|
E|--------------------------------------|

                                     x2
E|--------------------------------------|
B|--------------------------------------|
G|--------------------------------------|
D|--------------------------------------|
A|-----------2-2----1--1-1--0---0-0-----|
E|-0-0--3-3------3------------3-----3-2-|
            

comments powered by Disqus
↑ Back to top | Green Day Tabs for Espionage. Lyrics for acoustic guitar and electric guitar. Tablatures and chords are parodies/interpretations of the original songs. You may use it for private study, scholarship, research or language learning purposes only