» » »

Green Day, Espionage Tabs (ver.1)

Artists:  A B C D E F G H I J K L M N O P Q R S T U V W X Y Z # 

Espionage Tabs (ver.1)

Green Day Tabs
 Rating:
4/5 (4 votes)
Espionage lessons Tabs too difficult? Try these video lessons and learn fast
                Green Day
Espionage
Tuning (E,A,D,G,B,E)

Intro (Strum from high to low.)
|-0-|
|-0-|
|-0-|
|-2-|
|-2-|
|-0-|

Verse (Part 1)
|--------------------------|
|--------------------------|
|--------------------------|
|--------------------------|
|-------22---111-0---00----|
|-00-33----3-------3----32-|

Verse (Part 2)
|--------------------------|
|--------------------------|
|--------------------------|
|-------22---111-0---00----|
|-00-33----3-------3----32-|
|--------------------------|

Chorus
|-------------------------------------------------------------------------
|-------------------------------------------------------------------------
|-------------------------------------------------------------------------
|-------------------------------------------------------------------------
|-2-2-2-2-0-2-3-3-3-3-5-3-2-2-2-2-0-2-3-3-3-3-5-3-2-2-2-2-2-2-2-2-2-2-2-2-
|-------------------------------------------------------------------------

Chorus (cont.)
---------------------------------|
---------------------------------|
---------------------------------|
---------------------------------|
-3-3-3-3-3-3-3-3-6-6-6-6-6-6-6-6-|
---------------------------------|
            
Submit corrections

comments powered by Disqus
↑ Back to top | Green Day Tabs for Espionage. Lyrics for acoustic guitar and electric guitar. Tablatures and chords are parodies/interpretations of the original songs. You may use it for private study, scholarship, research or language learning purposes only