» » »

Green Day, Espionage Bass tabs (ver.1)

Artists:  A B C D E F G H I J K L M N O P Q R S T U V W X Y Z # 

Espionage Bass tabs (ver.1)

Green Day Tabs
Rating:
0/5 (0 votes)
Espionage lessons Tabs too difficult? Try these video lessons and learn fast
                Bassist: Mike Dirnt
Tuning: Standard

#- Palm Mute
~- Let Ring
1h2- Hammer On
1p2- Pull Off
\-Slide Up
/-Slide Down
(1)-Mute Note
play With My Band And It Sounds 100% Correct. Notes In Riffs 3 and 4 May Not Be 
Play What Sounds Right. Rest of The Riffs Are Spot On.


Intro
G|-------------------------------------------------------------------|
D|-------------------------------------------------------------------|
A|-------------------------------------------------------------------|
E|0~-----------------------------------------------------------------|


Riff 1 ( 0:12)
G|-----------------------------------------------------------------|
D|-----------------------------------------------------------------|
A|-----------------------------------------------------------------|
E|-00--22--00--22--00--22--00--22--00--22--00--22--00--22--00--22--|


Riff 2 (0:26)

G|----------------------------------------------------------------------------|
D|----------------------------------------------------------------------------|
A|-00--22--00--22--00--22--00-22----------------------------------------------|
E|--------------------------------------------00--22--00--22--00--22--00--22--|

Riff 3 (0:40)

G|-------------------------------------------------------------------|
D|-------------------------------------------------------------------|
A|2-222-20--3-333-3--5-3-2--2-222-20--3-333-3--5-3-2--2-222-20-22-2--|
E|-------------------------------------------------------------------|

Riff 4 (0:50)

G|-------------------------------------------------------------------------------|
D|-------------------------------------------------------------------------------|
A|22222222--4444444444----666666666666-------------------------------------------|
E|-------------------------------------------------------------------------------|

Order

Riff 1
Riff2
Riff3
Riff4
So On Till The End

Outro

E|0~-------|

Enjoy And Please Rate!
            

comments powered by Disqus
↑ Back to top | Green Day Bass for Espionage. Lyrics for acoustic guitar and electric guitar. Tablatures and chords are parodies/interpretations of the original songs. You may use it for private study, scholarship, research or language learning purposes only