» » »

Green Day, Espionage Tabs (ver.5)

Artists:  A B C D E F G H I J K L M N O P Q R S T U V W X Y Z # 

Espionage Tabs (ver.5)

Green Day Tabs
Rating:
0/5 (0 votes)
Espionage lessons Tabs too difficult? Try these video lessons and learn fast
                The other tabs I found for this were very good, but seemed a bit off on some notes, so I 
decided to write one myself. I also added the solo, which I don't think any of the 
other tabs had done.

Intro
e|-0----------------------------------------------------------------------------|
B|-0----------------------------------------------------------------------------|
G|-0----------------------------------------------------------------------------|
D|-2----------------------------------------------------------------------------|
A|-2----------------------------------------------------------------------------|
E|-0----------------------------------------------------------------------------|

Riff 1
e|------------------------------------------------------------------------------|
B|------------------------------------------------------------------------------|
G|------------------------------------------------------------------------------|
D|------------------------------------------------------------------------------|
A|----------2-2----1-1-1-0----0-0-----------------------------------------------|
E|-0-0--3-3-----3----------3------3-2-0-----------------------------------------|

Riff 2
e|------------------------------------------------------------------------------|
B|------------------------------------------------------------------------------|
G|------------------------------------------------------------------------------|
D|----------2-2----1-1--0----0-0------------------------------------------------|
A|-0-0--3-3-----3---------3------3-2-0------------------------------------------|
E|------------------------------------------------------------------------------|

Riff 3
e|---------------------------------------------------------------------------------|------------|
B|---------------------------------------------------------------------------------|------------|
G|---------------------------------------------------------------------------------|------------|
D|-9-9-9-9-9--5-9--10-10-10-10-10--12-10--9-9-9-9-9--10-10-10-10-10--9-9-9-9-9---X2|-9-9-9-9-9--|
A|-9-9-9-9-9--5-9--10-10-10-10-10--12--8--9-9-9-9-9--10-10-10-10-10--9-9-9-9-9-----|-9-9-9-9-9--|
E|-7-7-7-7-7--7-7---8--8--8--8--8--10--8--7-7-7-7-7---8--8--8--8--8--7-7-7-7-7-----|-7-7-7-7-7--|

e|------------------------------------------------------------------------------|
B|------------------------------------------------------------------------------|
G|----------------------------8-8-8-8-8-8-8-8-----------------------------------|
D|--10-10-10-10-10-10-10-10---8-8-8-8-8-8-8-8-----------------------------------|
A|--10-10-10-10-10-10-10-10---6-6-6-6-6-6-6-6-----------------------------------|
E|---8--8--8--8--8--8--8--8-----------------------------------------------------|

Solo
e|-10-10-10-9-9-9-8-8-7-7-7-7-7-7-7-7-|
B|--8--8--8-7-7-7-6-6-5-5-5-5-5-5-5-5-|
G|------------------------------------|
D|------------------------------------|
A|------------------------------------|
E|------------------------------------|

e|-15-15-15-14-14-14-13-13-12-12-12-12-12-12-12-12-|
B|-13-13-13-12-12-12-11-11-10-10-10-10-10-10-10-10-|
G|-------------------------------------------------|
D|-------------------------------------------------|
A|-------------------------------------------------|
E|-------------------------------------------------|

Stay groovy and keep on rockin'!
            

comments powered by Disqus
↑ Back to top | Green Day Tabs for Espionage. Lyrics for acoustic guitar and electric guitar. Tablatures and chords are parodies/interpretations of the original songs. You may use it for private study, scholarship, research or language learning purposes only