» » »

East Jesus Nowhere Ukulele Chords (ver.1)

Artists:  A B C D E F G H I J K L M N O P Q R S T U V W X Y Z # 

East Jesus Nowhere Ukulele Chords (ver.1)

Green Day
Rating:
0/5 (0 votes)

Hard to play? Try these video lessons and learn fast.
                Intro: E - G – E – D – E   x8

D – A – E 
          Raise your hands now to testify
D – A – E 
          Your confession will be crucified
D – A – E 
          You’re a sacrificial suicide
D – A – E                                A - D
          Like a dog that’s been sodomized
E-G-E-D-E
Stand up! – All the white boys
E-G-E-D-E
Sit down! – All the black girls
E-G-E-D-E
         You’re the soldiers 
E-G-E-D-E                           
         Of the new world
         B
         Put your faith in a miracle
D – A - B
         And it’s non-denominational
D – A - B
         Join the choir we will be singing
D – A - B
         In the church of wishful thinking

E              G
A fire burns today
      A          C     B
Of blasphemy and genocide
E              G
The sirens of decay
      A                 C      B
Will infiltrate the faith fanatics

E - G – E – D – E   x4
D – A - E

N.C.
Oh bless me lord for I have sinned
It’s been a lifetime since I last confessed
I threw my crutches in “The river
Of a shadow of doubt”
And I’ll be dressed in my Sunday best


D – A - B       
         Say a prayer for the family
D – A - B
         Drop a coin for humanity
D – A - B
         Ain’t this uniform so flattering?
D – A - B
         I never asked you a God damned thing

E              G
A fire burns today
      A          C     B
Of blasphemy and genocide
E              G
The sirens of decay
      A                 C      B
Will infiltrate the faith fanatics

E - G – E – D – E   x4

E
  Don’t test me
E
  Second guess me
E
  Protest me
  E     E    E       
  You will disappear


D – A - B
         I want to know who’s allowed to breed
D – A - B
         All the dogs who never learned to read
D – A - B
         Missionary politicians
D – A - B
         And the cops of a new religion

SOLO:
e|---------------------------------------------------------------12------12|
B|-----------------------------10-------10---12--13------12----------12----|
G|--9-----9--11-12----12------------9---------------12-------11------------|
D|-----9-----------12-----12-----------------------------------------------|
A|-------------------------------------------------------------------------|
E|-------------------------------------------------------------------------|

e|14----------------------12--------12------14----15--------14----12-------|
B|----15-------15--------------12----------------------15------------------|
G|--------12---------12----------------------------------------------------|
D|-------------------------------------------------------------------------|
A|-------------------------------------------------------------------------|
E|-------------------------------------------------------------------------|

E|0-0-0-0-0-0-0-0-0-4-4-7-7-7-7-7-7-7-7-10-10-8-8-8-8-8-8-8-8-8-5-4-4-4-4-|
x 4


E             G
A fire burns today
     A            C     B
Of blasphemy and genocide
E               G
The sirens of decay
     A            C     B
Will infiltrate the inside

E –  G – E – D – E   x4

D – A – E

E – E – E 
            
Hard to play? Try these video lessons and learn fast. | Correct




comments powered by Disqus
↑ Back to top | Tablatures and chords are parodies/interpretations of the original songs. You may use it for private study, scholarship, research or language learning purposes only