» » »

Green Day, East Jesus Nowhere Bass tabs (ver.1)

Artists:  A B C D E F G H I J K L M N O P Q R S T U V W X Y Z # 

East Jesus Nowhere Bass tabs (ver.1)

Green Day Tabs
 Rating:
4/5 (4 votes)
East Jesus Nowhere lessons Tabs too difficult? Try these video lessons and learn fast
                Intro
G|-------------xx-xx-xx--------------------------------------------------------|
D|-------------xx-xx-xx-(X3)---------------------------------------------------|
A|-5/8/5/3/5--xx-xx-xx------5/8/5/3/5\-----------------------------------------|
E|-------------xx-xx-xx--------------------------------------------------------|


Verse
G|-------xx-xx-xx-------|-------------xx-xx-xx-------------------------------|
D|-------xx-xx-xx--(X4)-|-------------xx-xx-xx-(X3)--------------------------|
A|-8-3-5----xx-xx-xx-------|--5/8/5/3/5-xx-xx-xx------5/8/5/3/5--------------|
E|-------xx-xx-xx-------|-------------xx-xx-xx-------------------------------|

G|------------------------|--------------------------------------------------|
D|-------------------(X3)-|--------------------------------------------------|
A|-5----------------------|--5------------55555555---------------------------|
E|---5-777777777777-------|----5-77777777------------------------------------|


Chorus
G|---------------------------------------------------------------------------|
D|---------------------------------------------------------------------------|
A|---------------000000-333-222----------------000000-333-555----------------|
E|-000000-333333-----------------000000-333333-------------------------------|


Intro plus first part of verse
G|-------------xx-xx-xx------------------------------------------------------|
D|-------------xx-xx-xx-(X3)-------------------------------------------------|
A|-7/10/7/5/7--xx-xx-xx------7/10/7/5/7\--5----------------------------------|
E|-------------xx-xx-xx---------------------5--------------------------------|


Bass solo (I guess you can call it that)
G|----------------------------------------------------------------------------|
D|-------------------------1-1p0---------1-1p0--2-2-222-----------------1-1p0-|
A|------------------2-2-222------2-2-222---------------0-------0-2-2-222------|
E|-0-0-00023-3-3333-------------------------------------3-3-333---------------|

G|---------------------------------------------------------------------------|
D|--------1-0-------------------------1-1p0----------------------------------|
A|-2-2-222---------------------2-2-222------2--------------------------------|
E|------------0-0-00023-3-3333-----------------------------------------------|


Verse 2
G|-------xx-xx-xx------|-----------------------------------------------------|
D|-------xx-xx-xx-(X3)-|-----------------------------------------------------|
A|-5-----xx-xx-xx------|--5----------555555----------------------------------|
E|---5-7-xx-xx-xx------|----5-777777-----------------------------------------|

Chorus

First part of the intro four times

  "Don't test me"
G|----------------------|----------------------------------------------------|
D|----------------------|----------------------------------------------------|
A|-777777777777777-(x3)-|-7--7--7--------------------------------------------|
E|----------------------|----------------------------------------------------|

Verse 2 again

Chorus

Interlude x4
G|---------------------------------------------------------------------------|
D|-------2---2-3---3-2--2----------------------------------------------------|
A|-----2---2-----2--------2--------------------------------------------------|
E|-0-------------------------------------------------------------------------|

Outro
G|-------------xx-xx-xx--------------------------------------------------------|
D|-------------xx-xx-xx-(X3)---------------------------------------------------|
A|--5/8/5/3/5-xx-xx-xx------5/8/5/3/5\--5---7----7777--------------------------|
E|-------------xx-xx-xx---------------------5----------------------------------|
            
Submit corrections

comments powered by Disqus
↑ Back to top | Green Day Bass for East Jesus Nowhere. Lyrics for acoustic guitar and electric guitar. Tablatures and chords are parodies/interpretations of the original songs. You may use it for private study, scholarship, research or language learning purposes only