» » »

Dookie Bass tabs (ver.1)

Artists:  A B C D E F G H I J K L M N O P Q R S T U V W X Y Z # 

Dookie Bass tabs (ver.1)

Green Day
Rating:
0/5 (0 votes)

Hard to play? Try these video lessons and learn fast.
                Intro
--------------------------------------------------
--------------------------------------------------
-------------5-5-5--7-7-7-------------------------
-------3-3-3-------------6-787-5-------------------
chorus
--------------------------------------------------
--------------------------------------------------
-------------5-5-5--7-7-7-------------------------
-------3-3-3-------------6------------------------


--------------------------------------------------
--------------------------------------------------
-------------5-5-5--7-7-7-------------------------
-------3-3-3-------------6-787-5-------------------
            
Hard to play? Try these video lessons and learn fast. | Correct




comments powered by Disqus
↑ Back to top | Tablatures and chords are parodies/interpretations of the original songs. You may use it for private study, scholarship, research or language learning purposes only