» » »

Green Day, Dookie Bass tabs (ver.2)

Artists:  A B C D E F G H I J K L M N O P Q R S T U V W X Y Z # 

Dookie Bass tabs (ver.2)

Green Day Tabs
 Rating:
4/5 (4 votes)
Dookie lessons Tabs too difficult? Try these video lessons and learn fast
                Tuning G,D,A,E
this tab is 100% right the only thing missing is the slide at the very begining


verse
-------------------------------8-6-5-6-----------------------
----8-6-5-----6-5---3---8-6-5--8-6-6-6---8-6-5-------6-5---3-
--6-------6-4-----4---6----------------6-------6--4------4---
-------------------------------------------------------------

bridge

--------------------
--------------------
---444-444-444-444--
--------------------

chorus


-----------------|--------------------------
-----------------|--------------------------
--------------6-6|--------------------------
--6-6-6-6-4-4----|-6-6-6-6-4-4-4-4----------

verse 5x / bridge

chorus 

some part

---------------------------
-------8-6-5---------------
--6-6---------4-3-1--------
--------------------4------

chorus untill new verse

new verse

----------8----6--5-------|---------8-------
------6h8---8--------8-6--|-----6h8---8-----
--6-6---------------------|-6-6-------------
--------------------------|-----------------


extanded bridge

---------------------------------
---------------------------------
-444-444-444-444-444-444-444-----
-----------------------------444-

chours 7x
new verse until the song fades out
            
Submit corrections

comments powered by Disqus
↑ Back to top | Green Day Bass for Dookie. Lyrics for acoustic guitar and electric guitar. Tablatures and chords are parodies/interpretations of the original songs. You may use it for private study, scholarship, research or language learning purposes only