» » »

Don't Leave Me  Tabs (ver.2)

Artists:  A B C D E F G H I J K L M N O P Q R S T U V W X Y Z # 

Don't Leave Me  Tabs (ver.2)

Green Day
Rating:
0/5 (0 votes)

Hard to play? Try these video lessons and learn fast.
                Green Day

Don't Leave Me - Smoothed Out Slappy Hours

Intro

--------------
--------------
--4--0--7--4--
--4--0--7--4--
--2--2--5--2--
--------------

These are the chords for the intro figure
out the rythem yourself.  It's very easy.

Chorus

--0-----0-----2-----2-------
--2--------2--2--------2----
--2--2--------3--3----------
--2-----------4-------------
--0-----------4-------------
--------------2-------------

These are repeated a lot.
Ta Dah This is the whole song.
Really tricky.  If you want me to put more songs
on here.  Please E-mail your opinions to Tub Ring 2.
If you have any songs you want me to post just write.

Get used to the fact that Green Day likes to make money.
Gregory.
            
Hard to play? Try these video lessons and learn fast. | Correct




comments powered by Disqus
↑ Back to top | Tablatures and chords are parodies/interpretations of the original songs. You may use it for private study, scholarship, research or language learning purposes only