» » »

Don't Leave Me  Bass tabs (ver.1)

Artists:  A B C D E F G H I J K L M N O P Q R S T U V W X Y Z # 

Don't Leave Me  Bass tabs (ver.1)

Green Day
Rating:
0/5 (0 votes)

Hard to play? Try these video lessons and learn fast.
                Intro: 
|----------------------------------|
|----------------------------------|
|-R-13/12/11-10/9/8-7/6/5-4/3/2----|
|----------------------------------|

Verse:
|----------------------------------|
|----------------------------------|
|-2-2-2-2-0-0-0-0-5-5-5-2-2-2-2----|
|----------------------------------|

Chorus:  		          After 1st chorus:
|----------------------------------|-----4--|
|----------------------------------|---4----|
|-----------------1-1-1-1-1-1-1-1--|-2------|
|-2-2-2-2-2-2-2-2------------------|--------|
            
Hard to play? Try these video lessons and learn fast. | Correct




comments powered by Disqus
↑ Back to top | Tablatures and chords are parodies/interpretations of the original songs. You may use it for private study, scholarship, research or language learning purposes only