» » »

Disappearing Boy Bass tabs (ver.2)

Artists:  A B C D E F G H I J K L M N O P Q R S T U V W X Y Z # 

Disappearing Boy Bass tabs (ver.2)

Green Day
Rating:
0/5 (0 votes)

Tabs too difficult? Try these video lessons and learn fast.
                Disappearing Boy Bass Tabs
Bassist: Mike Dirnt
Tuning: Standard

I noticed there were no tabs for Disappearing Boy, so i decided to tab them myself. Im 
the verses and chorus' are 100% correct, although the bridge may still be a bit off. I 
improve!


Intro: When drums kick in
|--------------------------------------------------------------------|
|--------------------------------------------------------------------|
|----------------------------------------------------------5-5-5-5-5-|
|--------------------------------------------------------------------|

Riff 1: (verses) e.g. “now you see me now you don’t, don’t ask me where I’m at, ‘cause 
a million miles away”
|--------------------------------------------------------------------|
|-7-7-7-7-7--4-4-4-4-4--5-5-5-5-5------------------------------------|
|----------------------------------5-5-5-5-5-------------------------|
|--------------------------------------------------------------------|

Riff 2: (Chorus’) e.g. “Am I in here or am I there?

|--------------------------------------------------------------------|
|-8-8-8-8-8--9-9-9-9-9---------9-------------------------------------|
|-----------------------9-9-9-----9----------------------------------|
|--------------------------------------------------------------------|

Riff 3: (Bridge/ Midtro) e.g. I had my doubts where I belong
|--------------------------------------------------------------------|
|-7--7--7---4--4--4---5--5--5----------------------------------------|
|-------------------------------5--5--5------------------------------|
|--------------------------------------------------------------------|

Order of song:
Verse 1: Riff 1 x 3 (“Now you see me now you don’t” TO “Or you won’t see me again”)

Chorus 1: Riff 2 x 4 (“Am I in here or am I there?” TO “I am the disappearing boy”

Then Repeat the same notes again for verse 2 and chorus 2

Bridge/ Midtro: Riff 3 x 5 (“I have my doubts of where I belong. It's something to think about.”)

Verse 3: Riff 1 x2 (No words)

Chorus 3: Riff 2 x 1 (“Don't call me up ‘cause I'm not home. TO I am the disappearing boy.”)
            
Tabs too difficult? Try these video lessons and learn fast.




comments powered by Disqus
↑ Back to top | Tablatures and chords are parodies/interpretations of the original songs. You may use it for private study, scholarship, research or language learning purposes only