» » »

Green Day, Disappearing Boy Tabs (ver.2)

Artists:  A B C D E F G H I J K L M N O P Q R S T U V W X Y Z # 

Disappearing Boy Tabs (ver.2)

Green Day Tabs
Rating:
0/5 (0 votes)
Disappearing Boy lessons Tabs too difficult? Try these video lessons and learn fast
                green day
disapearing boy
Intro
e|---------------------------------|
B|-------------------------7-77887-|
G|-6-66766-3-33433-4-44544-7-77777-|
D|-7-77777-4-44444-5-55555---------|
A|---.....---.....---.....---------|
E|-----PM--------------------------|

Verse
e|-------------------------|
B|-------------------------|
G|-------------------77777-|
D|-77777-44444-55555-77777-|
A|-77777-44444-55555-55555-|
E|-55555-22222-33333-------|

Chorus
e|-------------------------|
B|-------------------------|
G|-44444-55555-------------|
D|-44444-55555-55555-55555-|
A|-22222-33333-55555-55555-|
E|-------------33333-33333-|

Bridge
e|-2--2-----0--0-----0--0-----0--0-----|
B|-3----3---1----1---0----0---2----0---|
G|-2------2-0------0-4------4-2------2-|
D|-0--------2--------4--------2--------|
A|----------3--------2--------0--------|
E|-------------------------------------|

e|-------------------------------------------------------------------------|
B|-------------------------------------------------------------------------|
G|-------------------------------------------------------------------------|
D|-------------------------------------------------------------------------|
A|-5--7--7-7/9-9-9/11-11-11/12-12-11-9-7\5--3--5-5/7-7-7/9-9-9/11-11-9-7-5-|
E|-------------------------------------------------------------------------|
            

comments powered by Disqus
↑ Back to top | Green Day Tabs for Disappearing Boy. Lyrics for acoustic guitar and electric guitar. Tablatures and chords are parodies/interpretations of the original songs. You may use it for private study, scholarship, research or language learning purposes only