» » »

Green Day, Dirty Rotten Bastards Tabs (ver.2)

Artists:  A B C D E F G H I J K L M N O P Q R S T U V W X Y Z # 

Dirty Rotten Bastards Tabs (ver.2)

Green Day Tabs
 Rating:
4/5 (4 votes)
Dirty Rotten Bastards lessons Tabs too difficult? Try these video lessons and learn fast
1
                I didn't find a solo of this song so i'm gonna put it.


e|-6---6---6-----------------6---6---8-----|
B|-9b--9b--9b--8-6-5----6h9--9b--9b--11b---|
G|-----------------------------------------|
D|-----------------------------------------|
A|-----------------------------------------|
E|-----------------------------------------|

|------------------------------------------|
|-11p8----8-11p8----8-11p8----8-11p8----8--|
|------10--------10--------10--------10----|
|------------------------------------------|
|------------------------------------------|
|------------------------------------------|

|-------------------------------------------------|
|-16p13----13-16p13----13-16p13----13-16p13----13-|
|-------13----------13----------13----------13----|
|-------------------------------------------------|
|-------------------------------------------------|
|-------------------------------------------------|

|-13---13---13---|
|-16b--16b--16b--|
|----------------|
|----------------|
|----------------|
|----------------|

|-------------------------------------------------|
|-16p13----13-16p13----13-16p13----13-16p13----13-|
|-------13----------13----------13----------13----|
|-------------------------------------------------|
|-------------------------------------------------|
|-------------------------------------------------|

|-------------------------------------------------------|
|------------------------13----13----13----13-15b-15-13-|
|-15b-15-13--------------13----13----13----13-15b-15-13-|
|---------------13-13h15----15----15----15--------------|
|-------------------------------------------------------|
|-------------------------------------------------------|

|-------------------------------------------------|
|-16p13----13-16p13----13-16p13----13-16p13----13-|
|-------13----------13----------13----------13----|
|-------------------------------------------------|
|-------------------------------------------------|
|-------------------------------------------------|

|-13---13---13---|
|-16b--16b--16b--|
|----------------|
|----------------|
|----------------|
|----------------|

I hope you find it useful.
            
Submit corrections

comments powered by Disqus
↑ Back to top | Green Day Tabs for Dirty Rotten Bastards. Lyrics for acoustic guitar and electric guitar. 1 Tablatures and chords are parodies/interpretations of the original songs. You may use it for private study, scholarship, research or language learning purposes only