» » »

Green Day, Dirty Rotten Bastards Bass tabs (ver.1)

Artists:  A B C D E F G H I J K L M N O P Q R S T U V W X Y Z # 

Dirty Rotten Bastards Bass tabs (ver.1)

Green Day Tabs
 Rating:
4/5 (4 votes)
Dirty Rotten Bastards lessons Tabs too difficult? Try these video lessons and learn fast
1
                first tab,listen to the song to get the timing and rythm right.



G|---------------------------------------------------------------5--3-----|
D|---3(x10)------3-------------3-------3-----------------------5----------|
A|----------1---------3-----------1-------3--1-0-3--3-5--7---3------------|
E|------------------------------------------------------------------------|

G|-3---------------3------------------------------------------------------|
D|---------------3-----------------1---1--3--3--0-----------------3-------|
A|-1-1-1-1-----------1-1--3-3--3-1---3-------------3--1-3--1---3----------|
E|---------1-1-1----------------------------------------------------------|

G|-----------------------------------------------------------------------|
D|--3-0----------3----0---------------3---1--2-1---3---------------------|
A|------1-3-1-3----------3-1--3--3-3-------------------------------------|
E|-----------------------------------------------------------------------|
   Bass solo parts
G|------------------------------------1----------------------------------|
D|-1h3-3-3-1h3-3-0-----------1h3-3-3----3p1h3----------------------------|
A|-------------------3-1-3-----------------------------------------------|
E|-----------------------------------------------------------------------|

G|-----------1h3p1------1h3p1---------------------------------------------|
D|-------1-----------3---------3--1-------1-2-3--3--0---------------------|
A|---1h3-----------------------------3p1----------------1-3-1-3-----------|
E|-1----------------------------------------------------------------------|

song's written in F,this tab sounds close to the original,this is my first tab.
            
Submit corrections

comments powered by Disqus
↑ Back to top | Green Day Bass for Dirty Rotten Bastards. Lyrics for acoustic guitar and electric guitar. 1 Tablatures and chords are parodies/interpretations of the original songs. You may use it for private study, scholarship, research or language learning purposes only