» » »

Green Day, Dead Beat Holiday Bass tabs (ver.2)

Artists:  A B C D E F G H I J K L M N O P Q R S T U V W X Y Z # 

Dead Beat Holiday Bass tabs (ver.2)

Green Day Tabs
Rating:
0/5 (0 votes)
Dead Beat Holiday lessons Tabs too difficult? Try these video lessons and learn fast
                "Deadbeat Holiday
Green Day
Bass Tab

(EADG)
 
(come in at 0:31)
G|---------5---------------------------------------77777777--|
D|-------5---5----------------------------------45-----------|
A|-2--3-----------------22222222-33333333--5555--------------|
E|-------------00000000--------------------------------------|

G|-------------------------------------------------------------------------------|\
D|--------------------------5-------------------5--------------------------------| \
A|--------002-2222222-3-3-3---------------3-3-3------------------------5-5555555-| / 2 Times
E|--3-3-3---------------------0-3-3333333---------0-3-3333333\-1-1111------------|/

G|---------------------------------------------------------------------------|\
D|---------------------------------------------------------------------------| \
A|----------55555555-----------33333333-------------------33333333-55555555--| / 2 Times
E|-33333333----------33333333-----------33333333-00000000--------------------|/

G|---------5---------------------------------------77777777--|
D|-------5---5----------------------------------45-----------|
A|-2--3-----------------22222222-33333333--5555--------------|
E|-------------00000000--------------------------------------|

G|-------------------------------------------------------------------------------|\
D|--------------------------5-------------------5--------------------------------| \
A|--------002-2222222-3-3-3---------------3-3-3------------------------5-5555555-| / 2 Times
E|--3-3-3---------------------0-3-3333333---------0-3-3333333\-1-1111------------|/

G|-----------|\
D|-----------| \
A|--55555555-| / Forever
E|-----------|/

G|----------------------|\
D|----------------------| \
A|--5555-3333-222-0-2-3-| / 3 Times
E|----------------------|/

G|------------------777-777-77777777-|
D|-----------------------------------|
A|--5023-5053-5023-------------------|
E|-----------------------------------|

G|---------5---------------------------------------77777777--|
D|-------5---5----------------------------------45-----------|
A|-2--3-----------------22222222-33333333--5555--------------|
E|-------------00000000--------------------------------------|

G|-------------------------------------------------------------------------------|\
D|--------------------------5-------------------5--------------------------------| \
A|--------002-2222222-3-3-3---------------3-3-3------------------------5-5555555-| / 3 Times
E|--3-3-3---------------------0-3-3333333---------0-3-3333333\-1-1111------------|/

END

G|---|
D|---|
A|---|
E|-3-|
"            

comments powered by Disqus
↑ Back to top | Green Day Bass for Dead Beat Holiday. Lyrics for acoustic guitar and electric guitar. Tablatures and chords are parodies/interpretations of the original songs. You may use it for private study, scholarship, research or language learning purposes only