» » »

Dead Beat Holiday Bass tabs (ver.1)

Artists:  A B C D E F G H I J K L M N O P Q R S T U V W X Y Z # 

Dead Beat Holiday Bass tabs (ver.1)

Green Day
Rating:
0/5 (0 votes)

Hard to play? Try these video lessons and learn fast.
                "(1)
i've been feeling lazy and have been waiting for someone to tab this song out. 
but here it is.

Intro
G|---------------------------------------------------
D|---------------------------------------------------
A|----0-----3--------3--0----2--2-3--3----3----------
E|-3-----3-----3--0--------------------3----3-3-3-3\-
   Let Ring~~~~~~~~~~~~~~~~~~~~~~~~~~~~~~~~~~~~~~~~
  -----------------------------------7---------|
  -------------------------------------7-5-----|
  -----------2-2-2-2-0-3-3-3-3-0-5-5-------7-5-|
  -0-0-0-0-0-----------------------------------|

Chorus
G|-----------------------9---------------9---------------------
D|-------------------------------------------------------3-2-0-
A|-------5-5-5-5-0-7-7-7-----------7-7-7-----------------------
E|-3-3-0-------------------0-3-3-0---------0-3-3-3-0-1-1-------

  -------7-7-7-7-7-|
  -----------------|
  -5-5-5-----------|
  -----------------|

Verse
G|-----------------------------------------------------------
D|-----------------------------5---------5-------------------
A|-----------5-5-5-5-------------3-3-3-3---------------------
E|-3-3-3-3-0---------0-3-3-3-3-------------3-3-3-3-0-0-0-0-0-

  -----------------------|
  -----------------------|
  -3-3-3-3-4-5-5-5-5-5-5-|
  -----------------------|

Post-Verse
G|---------------------------------------
D|---------------------------------------
A|-2-2-2-2-0-3-3-3-3-3-------3-----------
E|---------------------0-3-3---0-3-3-3-3-

  -----------------------------------7---------|
  -------------------------------------7-5-----|
  -----------2-2-2-2-0-3-3-3-3-0-5-5-------7-5-|
  -0-0-0-0-0-----------------------------------|

Bridge
G|-5h7-7-7-7-7-7-|-7-7-5-5-----------------------------5-5-7-7-
D|---------------|---------7-7-5-5-------------5-5-7-7---------
A|---------------|-----------------7-7-5-5-5-5-----------------
E|---------------|---------------------------------------------

  -7-7-5-5-------------------------|
  ---------7-7-5-5-----------------|
  -----------------7-7-5-5-5-5-5-5-|
  ---------------------------------|

the order is pretty easy to figure out.
"            
Hard to play? Try these video lessons and learn fast. | Correct




comments powered by Disqus
↑ Back to top | Tablatures and chords are parodies/interpretations of the original songs. You may use it for private study, scholarship, research or language learning purposes only