» » »

City Of The Damned Tabs (ver.2)

Artists:  A B C D E F G H I J K L M N O P Q R S T U V W X Y Z # 

City Of The Damned Tabs (ver.2)

Green Day
Rating:
0/5 (0 votes)

Hard to play? Try these video lessons and learn fast.
                Band: Green Day
Green Day is:
Billy Joe Armstrong: Guitar and lead vocals
Mike Dirnt: Bass and vocals
Tre Cool: Drums and vocals

Intro 
e|------------|
B|------------|
G|------------|
D|------------|
A|-4-----4/6--|
E|-2-----2/4--|

Verse
e|----------------|
B|----------------|
G|----------------|
D|-6---6----------|
A|-4---3---8---6--|
E|---------6---4--|
At the centre of the earth 
In the parking lot
At the seven,eleven where I was
Tought 
(Pick Scr*pe)
e|----------------------------------|
B|----------------------------------|
G|----------------------------------|
D|----------------------------------|
A|-4-4-4-4-4-4-4-4-6-6-6-6-6-6-6-6--|
E|-2-2-2-2-2-2-2-2-4-4-4-4-4-4-4-4--|
The motto was just a lie

e|----------------|
B|----------------|
G|----------------|
D|-6---6----------|
A|-4---3---8---6--|
E|---------6---4--|
It says "home is where your heart is"
But what a shame 
Cause everyone's heart doesn't beat the same
(Pick Scr*pe)
e|----------------------------------|
B|----------------------------------|
G|----------------------------------|
D|----------------------------------|
A|-4-4-4-4-4-4-4-4-6-6-6-6-6-6-6-6--|
E|-2-2-2-2-2-2-2-2-4-4-4-4-4-4-4-4--|
It's beating out of time

Chorus
Bb5       Ab5
City of the damned
C#5           Gb5
At the end of another lost highway
Bb5       Ab5          Gb5
Signs missleading to nowhere
Bb5       Ab5
City of the damned
C#5                 Gb5
Lost children with dirty faces today
Bb5       Ab5         Gb5     
No one really seems to care

2nd Verse
e|----------------|
B|----------------|
G|----------------|
D|-6---6----------|
A|-4---3---8---6--|
E|---------6---4--|
I read the graffiti in the shopping stall
Like the holy scriptures of the shopping mall
(Pick Scr*pe)
e|----------------------------------|
B|----------------------------------|
G|----------------------------------|
D|----------------------------------|
A|-4-4-4-4-4-4-4-4-6-6-6-6-6-6-6-6--|
E|-2-2-2-2-2-2-2-2-4-4-4-4-4-4-4-4--|
And so it seemed to confess
e|----------------|
B|----------------|
G|----------------|
D|-6---6----------|
A|-4---3---8---6--|
E|---------6---4--|
It didn't say much but it only confermed that
The centre of the earth is the end of the world
And I could care less 

Chorus
Bb5       Ab5
City of the damned
C#5           Gb5
At the end of another lost highway
Bb5      Ab5           Gb5
Signs missleading to nowhere
Bb5       Ab5
City of the damned
C#5                 Gb5
Lost children with dirty faces today
Bb5      Ab5         Gb5     
No one really seems to care

Finish of the Gb5

If you have any comments and/or corrections
So hope you enjoy the song and good luck
            
Hard to play? Try these video lessons and learn fast. | Correct




comments powered by Disqus
↑ Back to top | Tablatures and chords are parodies/interpretations of the original songs. You may use it for private study, scholarship, research or language learning purposes only