» » »

Green Day, City Of The Damned Tabs (ver.1)

Artists:  A B C D E F G H I J K L M N O P Q R S T U V W X Y Z # 

City Of The Damned Tabs (ver.1)

Green Day Tabs
Rating:
0/5 (0 votes)
Hard to play? Try these video lessons and learn fast.
                -------------------------------------------------------------------------------
-------------------------------------------------------------------------------

The new green day album rules!  its been awhile since i heard another good CD, 
this is chapter II from Jesus Of Suburbia (track 2) 
---> city of the damned (the melody kinda reminds me of that song Jupiter by Train, or something like that)




Tuning:  Eb Ab Db Gb Bb eb  (1/2 step down)


| /  slide up
| \  slide down
| h  hammer-on
| p  pull-off
| ~  vibrato
| +  harmonic
| x  Mute note


Intro (picks off where the previous song ends at about 1:50min)

e|---------------------------------------------------------------------------|
B|---------------------------------------------------------------------------|
G|---------------------------------------------------------------------------|
D|----5~-/--7~---------------------------------------------------------------|
A|----5~-/--7~---------------------------------------------------------------|
E|----3~-/--5~---------------------------------------------------------------|


Verse     played with piano and guitar (clean with slight flanger effect) and after the
slide with distortion

e|---------------------------------------------------------------------------|
B|---------------------------------------------------------------------------|
G|----7~---6~---4~---2~------------------------------------------------------|
D|----x----x----x----x-------5--5--5--5--5--5--5--5--7--7--7--7--7--7--7--7--|	x2
A|----5~---4~---2~---0~------5--5--5--5--5--5--5--5--7--7--7--7--7--7--7--7--|
E|-----------------------\\--3--3--3--3--3--3--3--3--5--5--5--5--5--5--5--5--|   

			        	
you can play this instead of the piano  (clean sound + strum the chords)

e|----2~---0~---2~---0~------------------------------------------------------|
B|----3~---2~---3~---2~------------------------------------------------------|
G|----2~---2~---4~---2~------------------------------------------------------|
D|----0~---2~---4~---2~------------------------------------------------------|	x2
A|---------0~---2~---0~------------------------------------------------------|
E|---------------------------------------------------------------------------|


Chorus (distortion)

e|---------------------------------------------------------------------------|
B|---------------------------------------------------------------------------|
G|-----4-4-4-4-4-4-4-4--2-2-2-2-2-2-2-2--7-7-7-7-7-7-7-7---------------------|
D|-----4-4-4-4-4-4-4-4--2-2-2-2-2-2-2-2--7-7-7-7-7-7-7-7--5-5-5-5-5-5-5-5----|
A|-----2-2-2-2-2-2-2-2--0-0-0-0-0-0-0-0--5-5-5-5-5-5-5-5--5-5-5-5-5-5-5-5----|
E|--\-----------------------------------------------------3-3-3-3-3-3-3-3----|

                  City of the dead...         at another lost highway

e|---------------------------------------------------------------------------|
B|---------------------------------------------------------------------------|
G|----4--4--4--4-------------------------------------------------------------|
D|----4--4--4--4--7--7--7--7--5--5--5--5--5--5--5--5-------------------------|
A|----2--2--2--2--7--7--7--7--5--5--5--5--5--5--5--5-------------------------|
E|----------------5--5--5--5--3--3--3--3--3--3--3--3-------------------------|

	     Signs misleading to nowhere~

e|---------------------------------------------------------------------------|
B|---------------------------------------------------------------------------|
G|-----4-4-4-4-4-4-4-4--2-2-2-2-2-2-2-2--7-7-7-7-7-7-7-7---------------------|
D|-----4-4-4-4-4-4-4-4--2-2-2-2-2-2-2-2--7-7-7-7-7-7-7-7--5-5-5-5-5-5-5-5----|
A|-----2-2-2-2-2-2-2-2--0-0-0-0-0-0-0-0--5-5-5-5-5-5-5-5--5-5-5-5-5-5-5-5----|
E|--\-----------------------------------------------------3-3-3-3-3-3-3-3----|

		  City of the damned...  lost children with dirty faces today

e|---------------------------------------------------------------------------|
B|---------------------------------------------------------------------------|
G|----4--4--4--4-------------------------------------------------------------|
D|----4--4--4--4--7--7--7--7--5--5--5--5--5--5--5--5-------------------------|
A|----2--2--2--2--7--7--7--7--5--5--5--5--5--5--5--5-------------------------|
E|----------------5--5--5--5--3--3--3--3--3--3--3--3-------------------------|

	    No one really seems to care~

 
Outro   the last part of the chorus is extended and it switches to the "I Dont Care" song

e|-----------------------------|----------------------------------------------|
B|-----------------------------|----------------------------------------------|
G|-----------------------------|-----------------7-7--7-7-7-------------------|
D|----5--5--5--5--5--5--5--5---|-----7-7--7-7-7--7-7--7-7-7-------------------|
A|----5--5--5--5--5--5--5--5---|-----7-7--7-7-7--5-5--5-5-5-------------------|
E|----3--3--3--3--3--3--3--3---|-----5-5--5-5-5---------------and so on-------|



-------------------------


Song structure

Intro
Verse x2
Chorus
Verse x2
Chorus
Outro 


--------------------------

Lyrics

At the centre of the earth
in the parking lot 
of the 7-11 
where I saw taught
The motto was just a lie
It says "home is where your heart is"
but what a shame
'cause everyone's heart doesn't beat the same
We're beating out of time
City of the dead
at the end of another lost highway
signs misleading to nowhere
City of the damned
lost children with dirty faces today
no one really seems to care
I read the graffiti 
in the bathroomstall
like the holy scriptures 
in a shopping mall
And so it seemed to confess
It didn't say much 
but it only confirmed that
the centre of the earth
is the end of the world
And I could care less 
===============================================================================
            

comments powered by Disqus
↑ Back to top | Green Day Tabs for City Of The Damned. Lyrics for acoustic guitar and electric guitar. Tablatures and chords are parodies/interpretations of the original songs. You may use it for private study, scholarship, research or language learning purposes only