» » »

Green Day, Church On Sunday Tabs (ver.3)

Artists:  A B C D E F G H I J K L M N O P Q R S T U V W X Y Z # 

Church On Sunday Tabs (ver.3)

Green Day Tabs
 Rating:
4/5 (4 votes)
Church On Sunday lessons Tabs too difficult? Try these video lessons and learn fast
                Group: Green Day

verse
|-------------------------------------------------|
|-------------------------------------------------|
|-------------------------7-7-7-7-7-7-------------|
|-7-7-7-7-7-7-7-7-7-7-7-7-7-7-7-7-7-7-2-2-2-2-2-2-|
|-7-7-7-7-7-7-7-7-7-7-7-7-5-5-5-5-5-5-2-2-2-2-2-2-|
|-5-5-5-5-5-5-5-5-5-5-5-5-------------0-0-0-0-0-0-|

pre chorus 
|-------------------------------------------------|
|-------------------------------------------------|
|-------------------------9-9-9-9-9-9-9-9-9-9-9-9-|
|-4-4-4-6-7-7-7-7-7-7-7-7-9-9-9-9-9-9-9-9-9-9-9-9-|
|-4-4-4-6-7-7-7-7-7-7-7-7-7-7-7-7-7-7-7-7-7-7-7-7-|
|-2-2-2-4-5-5-5-5-5-5-5-5-------------------------|

chorus
|-----------------------------------------------------------------
|-----------------------------------------------------------------
|-----------------7-7-7-7-9-9-9-9-----------------7-7-7-7-9-9-9-9-
|-7-7-7-7-7-7-7-7-7-7-7-7-9-9-9-9-7-7-7-7-7-7-7-7-7-7-7-7-9-9-9-9-
|-7-7-7-7-7-7-7-7-5-5-5-5-7-7-7-7-7-7-7-7-7-7-7-7-5-5-5-5-7-7-7-7-
|-5-5-5-5-5-5-5-5-----------------5-5-5-5-5-5-5-5-----------------

 -----------------------------------------------------------------|
 -----------------------------------------------------------------|
 -----------------7-7-7-7-9-9-9-9---------------------------------|
 -7-7-7-7-7-7-7-7-7-7-7-7-9-9-9-9-7-7-7-7-7-7-7-7-2-2-2-2-2-2-2-2-|
 -7-7-7-7-7-7-7-7-5-5-5-5-7-7-7-7-7-7-7-7-7-7-7-7-2-2-2-2-2-2-2-2-|
 -5-5-5-5-5-5-5-5-----------------5-5-5-5-5-5-5-5-0-0-0-0-0-0-0-0-|

outro
|-----------------------------------------------------------------------------------|
|-----------------------------------------------------------------------------------|
|-----------------------------------------------------------------------------------|
|-7-7-7-7-7-7-7-7-2-2-2-2-2-2-2-2-7-7-7-7-7-7-7-7-2-2-2-2-2-2-2-2-3-3-3-3-3-3-3-3-7-|
|-7-7-7-7-7-7-7-7-2-2-2-2-2-2-2-2-7-7-7-7-7-7-7-7-2-2-2-2-2-2-2-2-3-3-3-3-3-3-3-3-7-|
|-5-5-5-5-5-5-5-5-0-0-0-0-0-0-0-0-5-5-5-5-5-5-5-5-0-0-0-0-0-0-0-0-1-1-1-1-1-1-1-1-5-|
            
Submit corrections

comments powered by Disqus
↑ Back to top | Green Day Tabs for Church On Sunday. Lyrics for acoustic guitar and electric guitar. Tablatures and chords are parodies/interpretations of the original songs. You may use it for private study, scholarship, research or language learning purposes only