» » »

Church On Sunday Tabs (ver.2)

Artists:  A B C D E F G H I J K L M N O P Q R S T U V W X Y Z # 

Church On Sunday Tabs (ver.2)

Green Day
Rating:
0/5 (0 votes)

Hard to play? Try these video lessons and learn fast.
                Tuning  : Standard (eadgbe)
Notes   : This song is the definition of a 3-chord wonder. An art that
          Green Day seems to have mastered. There's also a rock organ
          present in the background during some parts.

   VERSE
e:-----------------:-----------------:-----------------:-----------------:
b:-----------------:-----------------:-----------------:-----------------:
g:-----------------:-----------------:-7---7-7-7-7-7-7-:-9---9-9-9-9-9-9-:
d:-7---7-7-7-7-7-7-:-7-7-7-7---7---7-:-7---7-7-7-7-7-7-:-9---9-9-9-9-9-9-:
a:-7---7-7-7-7-7-7-:-7-7-7-7---7---7-:-5---5-5-5-5-5-5-:-7---7-7-7-7-7-7-:
e:-5---5-5-5-5-5-5-:-5-5-5-5---5---5-:-----------------:-0---0-0-0-0-0-0-:

   PRE-CHORUS
e:-----------------:-----------------:-----------------:-----------------:
b:-----------------:-----------------:-----------------:-----------------:
g:-----------------:-----------------:-9---9-9-9-9-9---:---9-9-9-9-9-9-9-:
d:-4---4-4-4-4-4-4-:-7---7-7-7-7-7-7-:-9---9-9-9-9-9---:---9-9-9-9-9-9-9-:
a:-4---4-4-4-4-4-4-:-7---7-7-7-7-7-7-:-7---7-7-7-7-7---:---7-7-7-7-7-7-7-:
e:-2---2-2-2-2-2-2-:-5---5-5-5-5-5-5-:-----------------:-----------------:

   CHORUS
e:-----------------:-----------------:-----------------:-----------------:
b:-----------------:-----------------:-----------------:-----------------:
g:-----------------:-7---7-9-9---9-9-:-----------------:-7---7-9-9---9-9-:
d:-7---7-7-7-7-7-7-:-7---7-9-9---9-9-:-7---7-7-7-7-7-7-:-7---7-9-9---9-9-:
a:-7---7-7-7-7-7-7-:-5---5-7-7---7-7-:-7---7-7-7-7-7-7-:-5---5-7-7---7-7-:
e:-5---5-5-5-5-5-5-:-----------------:-5---5-5-5-5-5-5-:-----------------:

e:-----------------:-----------------:-----------------:-----------------:
b:-----------------:-----------------:-----------------:-----------------:
g:-----------------:-7---7-9-9---9-9-:-----------------:---9-9-9-9-9-9-9-:
d:-7---7-7-7-7-7-7-:-7---7-9-9---9-9-:-7---7-7-7-7-7-7-:---9-9-9-9-9-9-9-:
a:-7---7-7-7-7-7-7-:-5---5-7-7---7-7-:-7---7-7-7-7-7-7-:---7-7-7-7-7-7-7-:
e:-5---5-5-5-5-5-5-:-----------------:-5---5-5-5-5-5-5-:-----------------:
            
Hard to play? Try these video lessons and learn fast. | Correct




comments powered by Disqus
↑ Back to top | Tablatures and chords are parodies/interpretations of the original songs. You may use it for private study, scholarship, research or language learning purposes only