» » »

Green Day, Christie Road Bass tabs (ver.2)

Artists:  A B C D E F G H I J K L M N O P Q R S T U V W X Y Z # 

Christie Road Bass tabs (ver.2)

Green Day Tabs
Rating:
0/5 (0 votes)
Christie Road lessons Tabs too difficult? Try these video lessons and learn fast
                Christie Road is a really fun song to play, and its not too difficult either, so enjoy!


Verse
Gb:--------------------------------------------------------------|
Db:-------------------------------------------5------------------|
Ab:--------------------------------3-33-33-333-35-5-55-5-55575---|
Eb:-3333333333333322000000000000000---------------------------75-|

Chorus
Gb:-------------------------------------|
Db:-------------------------------------|
Ab:-3-3-33---------3h55-5-55-5-55555555-|
Eb:--------3-33-3h5---------------------|

Gb:-------------------------------------|
Db:-------------------------------4542--|
Ab:-3-3-33---------3h55-5-55-5-555----5-|
Eb:--------3-33-3h5---------------------|

Gb:-------------------------------------|
Db:-------------------------------4542--|
Ab:-3-3-33---------3h55-5-55-5-555----5-|
Eb:--------3-33-3h5---------------------|

Gb:------------------------------------|
Db:------------------------------------|
Ab:-3--------------5-------------------|
Eb:--------3---------------------------|

Bridge 1

Gb:-------------------------------------|
Db:---------------------------------335-|
Ab:-------------------------------------|
Eb:-------------------------------------|

Bridge 2

Gb:------------5-------|
Db:---5------------335-|
Ab:----------3---------|
Eb:-3-----11-----------|


Bridge 3

Gb:------------------|
Db:------------------|
Ab:-----2222---------|
Eb:-3333----11111111-|

Brigde 4

Gb:--------------------|
Db:--------------------|
Ab:-3-3------------3h5-|
Eb:-----11-3-33-3h5----|

Bridge 5

Gb:----------------------------------|
Db:------------------------------335-|
Ab:-----------------3333333333333----|
Eb:-1111111111111111-----------------|

Order of parts

Verse x2
Chorus
Verse x2
Chorus
Bridge 1
Bridge 2 x4
Bridge 3 x4
Bridge 4 x3
Bridge 5
Bridge 2 x4
            

comments powered by Disqus
↑ Back to top | Green Day Bass for Christie Road. Lyrics for acoustic guitar and electric guitar. Tablatures and chords are parodies/interpretations of the original songs. You may use it for private study, scholarship, research or language learning purposes only