» » »

Green Day, Christie Road Bass tabs (ver.1)

Artists:  A B C D E F G H I J K L M N O P Q R S T U V W X Y Z # 

Christie Road Bass tabs (ver.1)

Green Day Tabs
 Rating:
4/5 (4 votes)
Christie Road lessons Tabs too difficult? Try these video lessons and learn fast
1
                		Christy Road bass tab

Verse

G---------------------------------------------------------
D------------------------------------2--------------------
A---------------------------------------333-333-333--234--
E-3-3-3-3-3-3-3-3-3-3-0-0-0-0-0-0-0-0---------------------

G-----------------------------|-----------------------------
D-----------------------------|-----------------------------
A-5--55-0-5-0-7-5-0-5-7-5-----|-5--55-0-5-0-7-5-0-5-7-5-7-5-
E-------------------------5-3-|-----------------------------
	1st verse ending	end of verse before chorus


Chorus

G-----------------------------------------------
D---------5-----------------------------7-5-----
A-3-3-5-3-----------5--55-0-5-0-7-5-0-5-----7-5-
E-----------3-3-5-3-----------------------------

G-----------------------------------------------
D---------5-------------------------------------
A-3-3-5-3-----------5--55-0-5-0-7-5-0-5-7-5-7-5-
E-----------3-3-5-3-----------------------------

G-----------------------------------------------
D---------5-----------------------------7-5-----
A-3-3-5-3-----------5--55-0-5-0-7-5-0-5-----7-5-
E-----------3-3-5-3-----------------------------

G------------------
D------------------
A--3-------------5-
E---------3--------

Bridge

G--------1---------------------------1-
D--1-3-1----------------------1-3-1----
A-----------------------3-3------------
E-----------3-3--1-1-1------1----------

Mother....			  One thing......

G-----------------------------------------------------------
D----------------------------------2-2-2------------7-------
A---------2-2-2-2-3-3-3-3-3-3-------------3-3-3-5-5---5-5-5-
E--3-3-3----------------------------------------------------

Solo

G---------------------------1--
D---------------------1-3-1----
A----------3-3-3-3-3-----------
E-3-3-3-3-3--------------------

Outro

G--------------------------------1-
D---------------3----------1-3-1---
A------------------3-3-------------
E--3-3---1-1-1----------1----------
====
            
Submit corrections

comments powered by Disqus
↑ Back to top | Green Day Bass for Christie Road. Lyrics for acoustic guitar and electric guitar. 1 Tablatures and chords are parodies/interpretations of the original songs. You may use it for private study, scholarship, research or language learning purposes only