» » »

Castaway Bass tabs (ver.3)

Artists:  A B C D E F G H I J K L M N O P Q R S T U V W X Y Z # 

Castaway Bass tabs (ver.3)

Green Day
Rating:
0/5 (0 votes)

Hard to play? Try these video lessons and learn fast.
                -------------------------------------------------------------------------------
			    castaway -green day
-------------------------------------------------------------------------------


Tuning:standard
intro/verse
G|----333--------------------------------------------------------------------|
D|---------3p2---------------------------------------------------------------|
A|---------------3p2------2 2 22---------------------------2-2-1-222---------|
E|--------------------------------------4444444  000000--------------444444--|

G|----------------------------------------------------------------------------------|
D|----------------------------------------------------------------------------------|
A|----------------------------------------------------------------------------------|
E|----00000-------------------------------------------------------------------------|
verse
G|--------------------------------------------------------------------------|
D|--------------------------------------------------------------------------|
A|-----22222-------------------------------222222---------------------------|
E|------------------444444----000000-------------------444444-------000000--|

G|------------------------------------------------------------|
D|-----------------1-----2------------------------------------|
A|------22222-1-2-----2---------------------2222--------------|
E|---------------------------444---0000-----------4444--0000--|
chorus
G|--------------------------------------------------------------------------|
D|--------------------------------------------------------------------------|
A|---8888888-----------------------2-2-2-11-2-2-2-2-112------------88888----|
E|----------------000000000---------------------------------0000000------2--|

G|---------------------------------------33----------------------------------|
D|----------------------------------------------3p2--------------------------|
A|----2222------------2221222------------------------3p2---22222-------------|
E|----------4444-0000--------44444-000---------------------------44444 0000--|

G|----------------------------------------|
D|----------------------------------------|
A|----22222--------------22222222---------|
E|----------444444-00000----------0----2--|
verse again than chorus /solo
G|-------------------------------------------|
D|--------------------------------777777777--|
A|--3333333---5555555---777777777------------|
E|-------------------------------------------|
bass solo or whatever you want to call it
G|-------------------------------------33----------|
D|-----------------------11--2------------2p3------|
A|-2222-------------22212--22-----------------2p3--|
E|------4444-0000--------------000000--------------|
play this 3 times play around with it untill it sounds good to you this is my first tab 
sorry if it aint good its hard to play but when you can play it its awesome

| /  slide up
| \  slide down
| h  hammer-on
| p  pull-off
| ~  vibrato
| +  harmonic
| x  Mute note
===============================================================================
            
Hard to play? Try these video lessons and learn fast. | Correct




comments powered by Disqus
↑ Back to top | Tablatures and chords are parodies/interpretations of the original songs. You may use it for private study, scholarship, research or language learning purposes only